ISO-10303-21;
HEADER;
FILE_DESCRIPTION (( 'STEP AP203' ),
    '1' );
FILE_NAME ('Web Model 43847_49569.step',
    '2018-03-12T20:49:06',
    ( '' ),
    ( '' ),
    'SwSTEP 2.0',
    'SolidWorks 2016',
    '' );
FILE_SCHEMA (( 'CONFIG_CONTROL_DESIGN' ));
ENDSEC;

DATA;
#1 = CC_DESIGN_APPROVAL ( #217, ( #198 ) ) ;
#2 = ORIENTED_EDGE ( 'NONE', *, *, #57, .F. ) ;
#3 = ORIENTED_EDGE ( 'NONE', *, *, #149, .F. ) ;
#4 = DIRECTION ( 'NONE',  ( 0.0000000000000000000, 0.0000000000000000000, -1.000000000000000000 ) ) ;
#5 = PLANE ( 'NONE',  #172 ) ;
#6 = CARTESIAN_POINT ( 'NONE',  ( -3.000000000000000000, -6.350000000000000500, 6.350000000000002300 ) ) ;
#7 = LOCAL_TIME ( 16, 49, 6.000000000000000000, #169 ) ;
#8 = CLOSED_SHELL ( 'NONE', ( #221, #14, #138, #219, #166, #216 ) ) ;
#9 = PRODUCT ( 'Web Model 43847_49569', 'Web Model 43847_49569', '', ( #158 ) ) ;
#10 = DIRECTION ( 'NONE',  ( 0.0000000000000000000, 1.000000000000000000, -2.048885995248197400E-016 ) ) ;
#11 = ORIENTED_EDGE ( 'NONE', *, *, #130, .F. ) ;
#12 = APPROVAL_ROLE ( '' ) ;
#13 = CARTESIAN_POINT ( 'NONE',  ( 3.000000000000000000, 6.349999999999998800, -6.349999999999999600 ) ) ;
#14 = ADVANCED_FACE ( 'NONE', ( #174 ), #39, .F. ) ;
#15 = CC_DESIGN_PERSON_AND_ORGANIZATION_ASSIGNMENT ( #25, #163, ( #198 ) ) ;
#16 = LOCAL_TIME ( 16, 49, 6.000000000000000000, #126 ) ;
#17 = LINE ( 'NONE', #85, #118 ) ;
#18 = VERTEX_POINT ( 'NONE', #220 ) ;
#19 = DIRECTION ( 'NONE',  ( -0.0000000000000000000, -0.0000000000000000000, 1.000000000000000000 ) ) ;
#20 = MANIFOLD_SOLID_BREP ( 'Boss-Extrude1', #8 ) ;
#21 = PLANE ( 'NONE',  #28 ) ;
#22 = ORGANIZATION ( 'UNSPECIFIED', 'UNSPECIFIED', '' ) ;
#23 = LINE ( 'NONE', #82, #170 ) ;
#24 = DIRECTION ( 'NONE',  ( -0.0000000000000000000, 1.000000000000000000, 2.048885995248197400E-016 ) ) ;
#25 = PERSON_AND_ORGANIZATION ( #29, #22 ) ;
#26 = VECTOR ( 'NONE', #194, 1000.000000000000000 ) ;
#27 = PLANE ( 'NONE',  #181 ) ;
#28 = AXIS2_PLACEMENT_3D ( 'NONE', #154, #101, #77 ) ;
#29 = PERSON ( 'UNSPECIFIED', 'UNSPECIFIED', 'UNSPECIFIED', ('UNSPECIFIED'), ('UNSPECIFIED'), ('UNSPECIFIED') ) ;
#30 =( NAMED_UNIT ( * ) PLANE_ANGLE_UNIT ( ) SI_UNIT ( $, .RADIAN. ) );
#31 = PERSON_AND_ORGANIZATION_ROLE ( 'design_owner' ) ;
#32 = VECTOR ( 'NONE', #196, 1000.000000000000000 ) ;
#33 = FACE_OUTER_BOUND ( 'NONE', #62, .T. ) ;
#34 = ORIENTED_EDGE ( 'NONE', *, *, #149, .T. ) ;
#35 = EDGE_CURVE ( 'NONE', #150, #162, #195, .T. ) ;
#36 = APPLICATION_PROTOCOL_DEFINITION ( 'international standard', 'config_control_design', 1994, #160 ) ;
#37 = ORIENTED_EDGE ( 'NONE', *, *, #38, .T. ) ;
#38 = EDGE_CURVE ( 'NONE', #150, #237, #145, .T. ) ;
#39 = PLANE ( 'NONE',  #74 ) ;
#40 = DIRECTION ( 'NONE',  ( -1.000000000000000000, -0.0000000000000000000, -0.0000000000000000000 ) ) ;
#41 = EDGE_CURVE ( 'NONE', #237, #18, #140, .T. ) ;
#42 = DIRECTION ( 'NONE',  ( 0.0000000000000000000, 0.0000000000000000000, -1.000000000000000000 ) ) ;
#43 = LINE ( 'NONE', #123, #32 ) ;
#44 = VERTEX_POINT ( 'NONE', #136 ) ;
#45 = DIRECTION ( 'NONE',  ( -1.000000000000000000, -0.0000000000000000000, -0.0000000000000000000 ) ) ;
#46 = SECURITY_CLASSIFICATION ( '', '', #235 ) ;
#47 = DIRECTION ( 'NONE',  ( -1.000000000000000000, -0.0000000000000000000, -0.0000000000000000000 ) ) ;
#48 = CARTESIAN_POINT ( 'NONE',  ( 3.000000000000000000, 6.349999999999998800, 6.349999999999999600 ) ) ;
#49 = APPROVAL_DATE_TIME ( #60, #159 ) ;
#50 = EDGE_LOOP ( 'NONE', ( #99, #231, #146, #2 ) ) ;
#51 = ORIENTED_EDGE ( 'NONE', *, *, #35, .T. ) ;
#52 = CARTESIAN_POINT ( 'NONE',  ( 3.000000000000000000, 6.349999999999998800, 6.349999999999999600 ) ) ;
#53 = VECTOR ( 'NONE', #58, 1000.000000000000000 ) ;
#54 = CC_DESIGN_PERSON_AND_ORGANIZATION_ASSIGNMENT ( #212, #204, ( #198 ) ) ;
#55 = COORDINATED_UNIVERSAL_TIME_OFFSET ( 5, 0, .BEHIND. ) ;
#56 = ORIENTED_EDGE ( 'NONE', *, *, #215, .T. ) ;
#57 = EDGE_CURVE ( 'NONE', #214, #162, #69, .T. ) ;
#58 = DIRECTION ( 'NONE',  ( -0.0000000000000000000, -0.0000000000000000000, 1.000000000000000000 ) ) ;
#59 =( GEOMETRIC_REPRESENTATION_CONTEXT ( 3 ) GLOBAL_UNCERTAINTY_ASSIGNED_CONTEXT ( ( #116 ) ) GLOBAL_UNIT_ASSIGNED_CONTEXT ( ( #211, #30, #108 ) ) REPRESENTATION_CONTEXT ( 'NONE', 'WORKASPACE' ) );
#60 = DATE_AND_TIME ( #72, #206 ) ;
#61 = APPROVAL_PERSON_ORGANIZATION ( #143, #119, #93 ) ;
#62 = EDGE_LOOP ( 'NONE', ( #100, #148, #132, #51 ) ) ;
#63 = DIRECTION ( 'NONE',  ( 1.000000000000000000, 0.0000000000000000000, 0.0000000000000000000 ) ) ;
#64 = DATE_AND_TIME ( #164, #209 ) ;
#65 = EDGE_LOOP ( 'NONE', ( #111, #137, #127, #34 ) ) ;
#66 = EDGE_CURVE ( 'NONE', #162, #183, #225, .T. ) ;
#67 = FACE_OUTER_BOUND ( 'NONE', #228, .T. ) ;
#68 = CC_DESIGN_APPROVAL ( #119, ( #46 ) ) ;
#69 = LINE ( 'NONE', #175, #133 ) ;
#70 = CALENDAR_DATE ( 2018, 12, 3 ) ;
#71 = DATE_TIME_ROLE ( 'classification_date' ) ;
#72 = CALENDAR_DATE ( 2018, 12, 3 ) ;
#73 = CARTESIAN_POINT ( 'NONE',  ( -3.000000000000000000, 6.349999999999998800, 6.349999999999999600 ) ) ;
#74 = AXIS2_PLACEMENT_3D ( 'NONE', #95, #167, #171 ) ;
#75 = COORDINATED_UNIVERSAL_TIME_OFFSET ( 5, 0, .BEHIND. ) ;
#76 = APPROVAL_PERSON_ORGANIZATION ( #185, #217, #142 ) ;
#77 = DIRECTION ( 'NONE',  ( 0.0000000000000000000, -1.000000000000000000, -2.048885995248197400E-016 ) ) ;
#78 = LINE ( 'NONE', #226, #218 ) ;
#79 = EDGE_LOOP ( 'NONE', ( #105, #188, #37, #199 ) ) ;
#80 = PRODUCT_RELATED_PRODUCT_CATEGORY ( 'detail', '', ( #9 ) ) ;
#81 = CARTESIAN_POINT ( 'NONE',  ( -3.000000000000000000, 6.349999999999998800, 6.349999999999999600 ) ) ;
#82 = CARTESIAN_POINT ( 'NONE',  ( 3.000000000000000000, 6.349999999999998800, -6.349999999999999600 ) ) ;
#83 = CALENDAR_DATE ( 2018, 12, 3 ) ;
#84 = PLANE ( 'NONE',  #152 ) ;
#85 = CARTESIAN_POINT ( 'NONE',  ( 3.000000000000000000, -6.350000000000000500, 6.350000000000002300 ) ) ;
#86 = AXIS2_PLACEMENT_3D ( 'NONE', #203, #184, #232 ) ;
#87 = EDGE_CURVE ( 'NONE', #44, #150, #89, .T. ) ;
#88 = PRODUCT_DEFINITION_SHAPE ( 'NONE', 'NONE',  #102 ) ;
#89 = LINE ( 'NONE', #121, #157 ) ;
#90 = DIRECTION ( 'NONE',  ( 0.0000000000000000000, -2.048885995248197400E-016, -1.000000000000000000 ) ) ;
#91 = DATE_TIME_ROLE ( 'creation_date' ) ;
#92 = SHAPE_DEFINITION_REPRESENTATION ( #88, #189 ) ;
#93 = APPROVAL_ROLE ( '' ) ;
#94 = VERTEX_POINT ( 'NONE', #73 ) ;
#95 = CARTESIAN_POINT ( 'NONE',  ( 3.000000000000000000, -6.350000000000000500, 6.350000000000002300 ) ) ;
#96 = FACE_OUTER_BOUND ( 'NONE', #79, .T. ) ;
#97 = ORIENTED_EDGE ( 'NONE', *, *, #129, .T. ) ;
#98 = PERSON_AND_ORGANIZATION ( #29, #22 ) ;
#99 = ORIENTED_EDGE ( 'NONE', *, *, #200, .F. ) ;
#100 = ORIENTED_EDGE ( 'NONE', *, *, #66, .T. ) ;
#101 = DIRECTION ( 'NONE',  ( 0.0000000000000000000, -2.048885995248197400E-016, 1.000000000000000000 ) ) ;
#102 = PRODUCT_DEFINITION ( 'UNKNOWN', '', #198, #114 ) ;
#103 = DIRECTION ( 'NONE',  ( 0.0000000000000000000, 0.0000000000000000000, -1.000000000000000000 ) ) ;
#104 = ORIENTED_EDGE ( 'NONE', *, *, #187, .T. ) ;
#105 = ORIENTED_EDGE ( 'NONE', *, *, #130, .T. ) ;
#106 = CC_DESIGN_PERSON_AND_ORGANIZATION_ASSIGNMENT ( #98, #31, ( #9 ) ) ;
#107 = PERSON_AND_ORGANIZATION ( #29, #22 ) ;
#108 =( NAMED_UNIT ( * ) SI_UNIT ( $, .STERADIAN. ) SOLID_ANGLE_UNIT ( ) );
#109 = APPLICATION_PROTOCOL_DEFINITION ( 'international standard', 'config_control_design', 1994, #144 ) ;
#110 = DIRECTION ( 'NONE',  ( 0.0000000000000000000, -0.0000000000000000000, -1.000000000000000000 ) ) ;
#111 = ORIENTED_EDGE ( 'NONE', *, *, #57, .T. ) ;
#112 = APPROVAL_STATUS ( 'not_yet_approved' ) ;
#113 = AXIS2_PLACEMENT_3D ( 'NONE', #178, #63, #4 ) ;
#114 = DESIGN_CONTEXT ( 'detailed design', #160, 'design' ) ;
#115 = APPROVAL_DATE_TIME ( #64, #217 ) ;
#116 = UNCERTAINTY_MEASURE_WITH_UNIT (LENGTH_MEASURE( 1.000000000000000100E-005 ), #211, 'distance_accuracy_value', 'NONE');
#117 = CC_DESIGN_APPROVAL ( #159, ( #102 ) ) ;
#118 = VECTOR ( 'NONE', #47, 1000.000000000000000 ) ;
#119 = APPROVAL ( #112, 'UNSPECIFIED' ) ;
#120 = COORDINATED_UNIVERSAL_TIME_OFFSET ( 5, 0, .BEHIND. ) ;
#121 = CARTESIAN_POINT ( 'NONE',  ( 3.000000000000000000, -6.350000000000000500, 6.350000000000002300 ) ) ;
#122 = FACE_OUTER_BOUND ( 'NONE', #205, .T. ) ;
#123 = CARTESIAN_POINT ( 'NONE',  ( 3.000000000000000000, 6.349999999999998800, 6.349999999999999600 ) ) ;
#124 = DIRECTION ( 'NONE',  ( 0.0000000000000000000, -1.000000000000000000, 0.0000000000000000000 ) ) ;
#125 = DIRECTION ( 'NONE',  ( 0.0000000000000000000, -1.000000000000000000, 2.048885995248197400E-016 ) ) ;
#126 = COORDINATED_UNIVERSAL_TIME_OFFSET ( 5, 0, .BEHIND. ) ;
#127 = ORIENTED_EDGE ( 'NONE', *, *, #87, .F. ) ;
#128 = APPROVAL_STATUS ( 'not_yet_approved' ) ;
#129 = EDGE_CURVE ( 'NONE', #183, #94, #78, .T. ) ;
#130 = EDGE_CURVE ( 'NONE', #18, #44, #177, .T. ) ;
#131 = LOCAL_TIME ( 16, 49, 6.000000000000000000, #120 ) ;
#132 = ORIENTED_EDGE ( 'NONE', *, *, #38, .F. ) ;
#133 = VECTOR ( 'NONE', #103, 1000.000000000000000 ) ;
#134 = ORIENTED_EDGE ( 'NONE', *, *, #41, .F. ) ;
#135 = CARTESIAN_POINT ( 'NONE',  ( 3.000000000000000000, -6.350000000000000500, -6.350000000000002300 ) ) ;
#136 = CARTESIAN_POINT ( 'NONE',  ( 3.000000000000000000, -6.350000000000000500, 6.350000000000002300 ) ) ;
#137 = ORIENTED_EDGE ( 'NONE', *, *, #35, .F. ) ;
#138 = ADVANCED_FACE ( 'NONE', ( #33 ), #21, .F. ) ;
#139 = PERSON_AND_ORGANIZATION ( #29, #22 ) ;
#140 = LINE ( 'NONE', #151, #53 ) ;
#141 = PLANE ( 'NONE',  #113 ) ;
#142 = APPROVAL_ROLE ( '' ) ;
#143 = PERSON_AND_ORGANIZATION ( #29, #22 ) ;
#144 = APPLICATION_CONTEXT ( 'configuration controlled 3d designs of mechanical parts and assemblies' ) ;
#145 = LINE ( 'NONE', #13, #202 ) ;
#146 = ORIENTED_EDGE ( 'NONE', *, *, #66, .F. ) ;
#147 = PERSON_AND_ORGANIZATION_ROLE ( 'creator' ) ;
#148 = ORIENTED_EDGE ( 'NONE', *, *, #187, .F. ) ;
#149 = EDGE_CURVE ( 'NONE', #44, #214, #17, .T. ) ;
#150 = VERTEX_POINT ( 'NONE', #197 ) ;
#151 = CARTESIAN_POINT ( 'NONE',  ( 3.000000000000000000, 6.349999999999998800, 6.349999999999999600 ) ) ;
#152 = AXIS2_PLACEMENT_3D ( 'NONE', #227, #229, #179 ) ;
#153 = VECTOR ( 'NONE', #24, 1000.000000000000000 ) ;
#154 = CARTESIAN_POINT ( 'NONE',  ( 3.000000000000000000, 6.349999999999998800, -6.349999999999999600 ) ) ;
#155 = CC_DESIGN_PERSON_AND_ORGANIZATION_ASSIGNMENT ( #191, #233, ( #46 ) ) ;
#156 = DATE_AND_TIME ( #70, #16 ) ;
#157 = VECTOR ( 'NONE', #42, 1000.000000000000000 ) ;
#158 = MECHANICAL_CONTEXT ( 'NONE', #144, 'mechanical' ) ;
#159 = APPROVAL ( #201, 'UNSPECIFIED' ) ;
#160 = APPLICATION_CONTEXT ( 'configuration controlled 3d designs of mechanical parts and assemblies' ) ;
#161 = VECTOR ( 'NONE', #40, 1000.000000000000000 ) ;
#162 = VERTEX_POINT ( 'NONE', #180 ) ;
#163 = PERSON_AND_ORGANIZATION_ROLE ( 'creator' ) ;
#164 = CALENDAR_DATE ( 2018, 12, 3 ) ;
#165 = LINE ( 'NONE', #81, #213 ) ;
#166 = ADVANCED_FACE ( 'NONE', ( #96 ), #84, .T. ) ;
#167 = DIRECTION ( 'NONE',  ( -0.0000000000000000000, 1.000000000000000000, 0.0000000000000000000 ) ) ;
#168 = DIRECTION ( 'NONE',  ( -0.0000000000000000000, 1.000000000000000000, 2.048885995248197400E-016 ) ) ;
#169 = COORDINATED_UNIVERSAL_TIME_OFFSET ( 5, 0, .BEHIND. ) ;
#170 = VECTOR ( 'NONE', #45, 1000.000000000000000 ) ;
#171 = DIRECTION ( 'NONE',  ( 0.0000000000000000000, -0.0000000000000000000, 1.000000000000000000 ) ) ;
#172 = AXIS2_PLACEMENT_3D ( 'NONE', #52, #90, #10 ) ;
#173 = CARTESIAN_POINT ( 'NONE',  ( -3.000000000000000000, 6.349999999999998800, -6.349999999999999600 ) ) ;
#174 = FACE_OUTER_BOUND ( 'NONE', #65, .T. ) ;
#175 = CARTESIAN_POINT ( 'NONE',  ( -3.000000000000000000, -6.350000000000000500, 6.350000000000002300 ) ) ;
#176 = CC_DESIGN_PERSON_AND_ORGANIZATION_ASSIGNMENT ( #139, #147, ( #102 ) ) ;
#177 = LINE ( 'NONE', #207, #26 ) ;
#178 = CARTESIAN_POINT ( 'NONE',  ( -3.000000000000000000, 0.0000000000000000000, 0.0000000000000000000 ) ) ;
#179 = DIRECTION ( 'NONE',  ( 0.0000000000000000000, 0.0000000000000000000, -1.000000000000000000 ) ) ;
#180 = CARTESIAN_POINT ( 'NONE',  ( -3.000000000000000000, -6.350000000000000500, -6.350000000000002300 ) ) ;
#181 = AXIS2_PLACEMENT_3D ( 'NONE', #48, #124, #110 ) ;
#182 = APPROVAL_PERSON_ORGANIZATION ( #107, #159, #12 ) ;
#183 = VERTEX_POINT ( 'NONE', #192 ) ;
#184 = DIRECTION ( 'NONE',  ( 0.0000000000000000000, 0.0000000000000000000, 1.000000000000000000 ) ) ;
#185 = PERSON_AND_ORGANIZATION ( #29, #22 ) ;
#186 = ORIENTED_EDGE ( 'NONE', *, *, #200, .T. ) ;
#187 = EDGE_CURVE ( 'NONE', #237, #183, #23, .T. ) ;
#188 = ORIENTED_EDGE ( 'NONE', *, *, #87, .T. ) ;
#189 = ADVANCED_BREP_SHAPE_REPRESENTATION ( 'Web Model 43847_49569', ( #20, #86 ), #59 ) ;
#190 = APPROVAL_DATE_TIME ( #156, #119 ) ;
#191 = PERSON_AND_ORGANIZATION ( #29, #22 ) ;
#192 = CARTESIAN_POINT ( 'NONE',  ( -3.000000000000000000, 6.349999999999998800, -6.349999999999999600 ) ) ;
#193 = DATE_AND_TIME ( #224, #131 ) ;
#194 = DIRECTION ( 'NONE',  ( 0.0000000000000000000, -1.000000000000000000, 2.048885995248197400E-016 ) ) ;
#195 = LINE ( 'NONE', #135, #161 ) ;
#196 = DIRECTION ( 'NONE',  ( -1.000000000000000000, -0.0000000000000000000, -0.0000000000000000000 ) ) ;
#197 = CARTESIAN_POINT ( 'NONE',  ( 3.000000000000000000, -6.350000000000000500, -6.350000000000002300 ) ) ;
#198 = PRODUCT_DEFINITION_FORMATION_WITH_SPECIFIED_SOURCE ( 'ANY', '', #9, .NOT_KNOWN. ) ;
#199 = ORIENTED_EDGE ( 'NONE', *, *, #41, .T. ) ;
#200 = EDGE_CURVE ( 'NONE', #94, #214, #165, .T. ) ;
#201 = APPROVAL_STATUS ( 'not_yet_approved' ) ;
#202 = VECTOR ( 'NONE', #168, 1000.000000000000000 ) ;
#203 = CARTESIAN_POINT ( 'NONE',  ( 0.0000000000000000000, 0.0000000000000000000, 0.0000000000000000000 ) ) ;
#204 = PERSON_AND_ORGANIZATION_ROLE ( 'design_supplier' ) ;
#205 = EDGE_LOOP ( 'NONE', ( #97, #222, #134, #104 ) ) ;
#206 = LOCAL_TIME ( 16, 49, 6.000000000000000000, #55 ) ;
#207 = CARTESIAN_POINT ( 'NONE',  ( 3.000000000000000000, 6.349999999999998800, 6.349999999999999600 ) ) ;
#208 = CC_DESIGN_DATE_AND_TIME_ASSIGNMENT ( #193, #91, ( #102 ) ) ;
#209 = LOCAL_TIME ( 16, 49, 6.000000000000000000, #75 ) ;
#210 = FACE_OUTER_BOUND ( 'NONE', #50, .T. ) ;
#211 =( LENGTH_UNIT ( ) NAMED_UNIT ( * ) SI_UNIT ( .MILLI., .METRE. ) );
#212 = PERSON_AND_ORGANIZATION ( #29, #22 ) ;
#213 = VECTOR ( 'NONE', #125, 1000.000000000000000 ) ;
#214 = VERTEX_POINT ( 'NONE', #6 ) ;
#215 = EDGE_CURVE ( 'NONE', #18, #94, #43, .T. ) ;
#216 = ADVANCED_FACE ( 'NONE', ( #210 ), #141, .F. ) ;
#217 = APPROVAL ( #128, 'UNSPECIFIED' ) ;
#218 = VECTOR ( 'NONE', #19, 1000.000000000000000 ) ;
#219 = ADVANCED_FACE ( 'NONE', ( #122 ), #27, .F. ) ;
#220 = CARTESIAN_POINT ( 'NONE',  ( 3.000000000000000000, 6.349999999999998800, 6.349999999999999600 ) ) ;
#221 = ADVANCED_FACE ( 'NONE', ( #67 ), #5, .F. ) ;
#222 = ORIENTED_EDGE ( 'NONE', *, *, #215, .F. ) ;
#223 = CC_DESIGN_DATE_AND_TIME_ASSIGNMENT ( #236, #71, ( #46 ) ) ;
#224 = CALENDAR_DATE ( 2018, 12, 3 ) ;
#225 = LINE ( 'NONE', #173, #153 ) ;
#226 = CARTESIAN_POINT ( 'NONE',  ( -3.000000000000000000, 6.349999999999998800, 6.349999999999999600 ) ) ;
#227 = CARTESIAN_POINT ( 'NONE',  ( 3.000000000000000000, 0.0000000000000000000, 0.0000000000000000000 ) ) ;
#228 = EDGE_LOOP ( 'NONE', ( #186, #3, #11, #56 ) ) ;
#229 = DIRECTION ( 'NONE',  ( 1.000000000000000000, 0.0000000000000000000, 0.0000000000000000000 ) ) ;
#230 = CARTESIAN_POINT ( 'NONE',  ( 3.000000000000000000, 6.349999999999998800, -6.349999999999999600 ) ) ;
#231 = ORIENTED_EDGE ( 'NONE', *, *, #129, .F. ) ;
#232 = DIRECTION ( 'NONE',  ( 1.000000000000000000, 0.0000000000000000000, 0.0000000000000000000 ) ) ;
#233 = PERSON_AND_ORGANIZATION_ROLE ( 'classification_officer' ) ;
#234 = CC_DESIGN_SECURITY_CLASSIFICATION ( #46, ( #198 ) ) ;
#235 = SECURITY_CLASSIFICATION_LEVEL ( 'unclassified' ) ;
#236 = DATE_AND_TIME ( #83, #7 ) ;
#237 = VERTEX_POINT ( 'NONE', #230 ) ;
ENDSEC;
END-ISO-10303-21;
