ISO-10303-21;
HEADER;
FILE_DESCRIPTION (( 'STEP AP203' ),
    '1' );
FILE_NAME ('Web Model 84459_13330.step',
    '2020-11-04T13:03:49',
    ( '' ),
    ( '' ),
    'SwSTEP 2.0',
    'SolidWorks 2018',
    '' );
FILE_SCHEMA (( 'CONFIG_CONTROL_DESIGN' ));
ENDSEC;

DATA;
#1 =( GEOMETRIC_REPRESENTATION_CONTEXT ( 3 ) GLOBAL_UNCERTAINTY_ASSIGNED_CONTEXT ( ( #68 ) ) GLOBAL_UNIT_ASSIGNED_CONTEXT ( ( #56, #7, #69 ) ) REPRESENTATION_CONTEXT ( 'NONE', 'WORKASPACE' ) );
#2 = APPROVAL_ROLE ( '' ) ;
#3 = ORIENTED_EDGE ( 'NONE', *, *, #133, .F. ) ;
#4 = APPROVAL_STATUS ( 'not_yet_approved' ) ;
#5 = APPLICATION_PROTOCOL_DEFINITION ( 'international standard', 'config_control_design', 1994, #89 ) ;
#6 = EDGE_CURVE ( 'NONE', #114, #28, #17, .T. ) ;
#7 =( NAMED_UNIT ( * ) PLANE_ANGLE_UNIT ( ) SI_UNIT ( $, .RADIAN. ) );
#8 = CLOSED_SHELL ( 'NONE', ( #131, #130, #58, #29 ) ) ;
#9 = ORGANIZATION ( 'UNSPECIFIED', 'UNSPECIFIED', '' ) ;
#10 = PRODUCT_DEFINITION_FORMATION_WITH_SPECIFIED_SOURCE ( 'ANY', '', #135, .NOT_KNOWN. ) ;
#11 = CIRCLE ( 'NONE', #173, 2.500000000000000000 ) ;
#12 = DATE_AND_TIME ( #55, #21 ) ;
#13 = APPROVAL_DATE_TIME ( #46, #142 ) ;
#14 = CARTESIAN_POINT ( 'NONE',  ( 2.500000000000000000, 0.0000000000000000000, -1.000000000000000000 ) ) ;
#15 = CIRCLE ( 'NONE', #145, 2.500000000000000000 ) ;
#16 = DIRECTION ( 'NONE',  ( 1.000000000000000000, 0.0000000000000000000, 0.0000000000000000000 ) ) ;
#17 = CIRCLE ( 'NONE', #65, 2.500000000000000000 ) ;
#18 = CALENDAR_DATE ( 2020, 4, 11 ) ;
#19 = DIRECTION ( 'NONE',  ( 0.0000000000000000000, 0.0000000000000000000, 1.000000000000000000 ) ) ;
#20 = PRODUCT_RELATED_PRODUCT_CATEGORY ( 'detail', '', ( #135 ) ) ;
#21 = LOCAL_TIME ( 8, 3, 49.00000000000000000, #141 ) ;
#22 = AXIS2_PLACEMENT_3D ( 'NONE', #125, #76, #16 ) ;
#23 = COORDINATED_UNIVERSAL_TIME_OFFSET ( 5, 0, .BEHIND. ) ;
#24 = CC_DESIGN_SECURITY_CLASSIFICATION ( #103, ( #10 ) ) ;
#25 = CARTESIAN_POINT ( 'NONE',  ( 0.0000000000000000000, 0.0000000000000000000, 0.0000000000000000000 ) ) ;
#26 = PERSON_AND_ORGANIZATION ( #75, #9 ) ;
#27 = AXIS2_PLACEMENT_3D ( 'NONE', #25, #19, #57 ) ;
#28 = VERTEX_POINT ( 'NONE', #148 ) ;
#29 = ADVANCED_FACE ( 'NONE', ( #49 ), #51, .T. ) ;
#30 = PERSON_AND_ORGANIZATION ( #75, #9 ) ;
#31 = APPROVAL_DATE_TIME ( #154, #36 ) ;
#32 = ORIENTED_EDGE ( 'NONE', *, *, #40, .T. ) ;
#33 = CC_DESIGN_PERSON_AND_ORGANIZATION_ASSIGNMENT ( #60, #104, ( #72 ) ) ;
#34 = DESIGN_CONTEXT ( 'detailed design', #89, 'design' ) ;
#35 = AXIS2_PLACEMENT_3D ( 'NONE', #94, #108, #38 ) ;
#36 = APPROVAL ( #113, 'UNSPECIFIED' ) ;
#37 = LINE ( 'NONE', #62, #146 ) ;
#38 = DIRECTION ( 'NONE',  ( 1.000000000000000000, 0.0000000000000000000, 0.0000000000000000000 ) ) ;
#39 = CARTESIAN_POINT ( 'NONE',  ( 2.500000000000000000, 0.0000000000000000000, 0.0000000000000000000 ) ) ;
#40 = EDGE_CURVE ( 'NONE', #114, #169, #37, .T. ) ;
#41 = ORIENTED_EDGE ( 'NONE', *, *, #163, .T. ) ;
#42 = PERSON_AND_ORGANIZATION_ROLE ( 'design_owner' ) ;
#43 = VECTOR ( 'NONE', #164, 1000.000000000000000 ) ;
#44 = LOCAL_TIME ( 8, 3, 49.00000000000000000, #84 ) ;
#45 = ORIENTED_EDGE ( 'NONE', *, *, #59, .F. ) ;
#46 = DATE_AND_TIME ( #88, #124 ) ;
#47 = CC_DESIGN_PERSON_AND_ORGANIZATION_ASSIGNMENT ( #120, #116, ( #10 ) ) ;
#48 = DIRECTION ( 'NONE',  ( 0.0000000000000000000, 0.0000000000000000000, 1.000000000000000000 ) ) ;
#49 = FACE_OUTER_BOUND ( 'NONE', #73, .T. ) ;
#50 = COORDINATED_UNIVERSAL_TIME_OFFSET ( 5, 0, .BEHIND. ) ;
#51 = PLANE ( 'NONE',  #74 ) ;
#52 = DIRECTION ( 'NONE',  ( 0.0000000000000000000, 0.0000000000000000000, 1.000000000000000000 ) ) ;
#53 = DIRECTION ( 'NONE',  ( 0.0000000000000000000, 0.0000000000000000000, 1.000000000000000000 ) ) ;
#54 = CARTESIAN_POINT ( 'NONE',  ( 0.0000000000000000000, 0.0000000000000000000, -1.000000000000000000 ) ) ;
#55 = CALENDAR_DATE ( 2020, 4, 11 ) ;
#56 =( LENGTH_UNIT ( ) NAMED_UNIT ( * ) SI_UNIT ( .MILLI., .METRE. ) );
#57 = DIRECTION ( 'NONE',  ( 1.000000000000000000, 0.0000000000000000000, 0.0000000000000000000 ) ) ;
#58 = ADVANCED_FACE ( 'NONE', ( #110 ), #64, .F. ) ;
#59 = EDGE_CURVE ( 'NONE', #169, #143, #160, .T. ) ;
#60 = PERSON_AND_ORGANIZATION ( #75, #9 ) ;
#61 = CC_DESIGN_DATE_AND_TIME_ASSIGNMENT ( #12, #100, ( #103 ) ) ;
#62 = CARTESIAN_POINT ( 'NONE',  ( 2.500000000000000000, 0.0000000000000000000, -1.000000000000000000 ) ) ;
#63 = ORIENTED_EDGE ( 'NONE', *, *, #163, .F. ) ;
#64 = PLANE ( 'NONE',  #117 ) ;
#65 = AXIS2_PLACEMENT_3D ( 'NONE', #97, #53, #136 ) ;
#66 = COORDINATED_UNIVERSAL_TIME_OFFSET ( 5, 0, .BEHIND. ) ;
#67 = CALENDAR_DATE ( 2020, 4, 11 ) ;
#68 = UNCERTAINTY_MEASURE_WITH_UNIT (LENGTH_MEASURE( 1.000000000000000082E-05 ), #56, 'distance_accuracy_value', 'NONE');
#69 =( NAMED_UNIT ( * ) SI_UNIT ( $, .STERADIAN. ) SOLID_ANGLE_UNIT ( ) );
#70 = PERSON_AND_ORGANIZATION_ROLE ( 'design_supplier' ) ;
#71 = APPROVAL_ROLE ( '' ) ;
#72 = PRODUCT_DEFINITION ( 'UNKNOWN', '', #10, #34 ) ;
#73 = EDGE_LOOP ( 'NONE', ( #158, #41 ) ) ;
#74 = AXIS2_PLACEMENT_3D ( 'NONE', #78, #109, #138 ) ;
#75 = PERSON ( 'UNSPECIFIED', 'UNSPECIFIED', 'UNSPECIFIED', ('UNSPECIFIED'), ('UNSPECIFIED'), ('UNSPECIFIED') ) ;
#76 = DIRECTION ( 'NONE',  ( 0.0000000000000000000, 0.0000000000000000000, 1.000000000000000000 ) ) ;
#77 = ORIENTED_EDGE ( 'NONE', *, *, #6, .T. ) ;
#78 = CARTESIAN_POINT ( 'NONE',  ( 0.0000000000000000000, 0.0000000000000000000, 0.0000000000000000000 ) ) ;
#79 = CYLINDRICAL_SURFACE ( 'NONE', #153, 2.500000000000000000 ) ;
#80 = DIRECTION ( 'NONE',  ( 1.000000000000000000, 0.0000000000000000000, -0.0000000000000000000 ) ) ;
#81 = CC_DESIGN_PERSON_AND_ORGANIZATION_ASSIGNMENT ( #174, #102, ( #103 ) ) ;
#82 = LINE ( 'NONE', #165, #43 ) ;
#83 = DIRECTION ( 'NONE',  ( 1.000000000000000000, 0.0000000000000000000, 0.0000000000000000000 ) ) ;
#84 = COORDINATED_UNIVERSAL_TIME_OFFSET ( 5, 0, .BEHIND. ) ;
#85 = ADVANCED_BREP_SHAPE_REPRESENTATION ( 'Web Model 84459_13330', ( #118, #27 ), #1 ) ;
#86 = ORIENTED_EDGE ( 'NONE', *, *, #40, .F. ) ;
#87 = APPLICATION_PROTOCOL_DEFINITION ( 'international standard', 'config_control_design', 1994, #90 ) ;
#88 = CALENDAR_DATE ( 2020, 4, 11 ) ;
#89 = APPLICATION_CONTEXT ( 'configuration controlled 3d designs of mechanical parts and assemblies' ) ;
#90 = APPLICATION_CONTEXT ( 'configuration controlled 3d designs of mechanical parts and assemblies' ) ;
#91 = CYLINDRICAL_SURFACE ( 'NONE', #22, 2.500000000000000000 ) ;
#92 = EDGE_LOOP ( 'NONE', ( #3, #101, #32, #63 ) ) ;
#93 = LOCAL_TIME ( 8, 3, 49.00000000000000000, #23 ) ;
#94 = CARTESIAN_POINT ( 'NONE',  ( 0.0000000000000000000, 0.0000000000000000000, 0.0000000000000000000 ) ) ;
#95 = CC_DESIGN_DATE_AND_TIME_ASSIGNMENT ( #155, #171, ( #72 ) ) ;
#96 = EDGE_LOOP ( 'NONE', ( #77, #132, #45, #86 ) ) ;
#97 = CARTESIAN_POINT ( 'NONE',  ( 0.0000000000000000000, 0.0000000000000000000, -1.000000000000000000 ) ) ;
#98 = CARTESIAN_POINT ( 'NONE',  ( 0.0000000000000000000, 0.0000000000000000000, -1.000000000000000000 ) ) ;
#99 = CARTESIAN_POINT ( 'NONE',  ( 0.0000000000000000000, 0.0000000000000000000, 0.0000000000000000000 ) ) ;
#100 = DATE_TIME_ROLE ( 'classification_date' ) ;
#101 = ORIENTED_EDGE ( 'NONE', *, *, #106, .T. ) ;
#102 = PERSON_AND_ORGANIZATION_ROLE ( 'classification_officer' ) ;
#103 = SECURITY_CLASSIFICATION ( '', '', #144 ) ;
#104 = PERSON_AND_ORGANIZATION_ROLE ( 'creator' ) ;
#105 = CC_DESIGN_APPROVAL ( #142, ( #10 ) ) ;
#106 = EDGE_CURVE ( 'NONE', #28, #114, #15, .T. ) ;
#107 = APPROVAL_PERSON_ORGANIZATION ( #115, #142, #2 ) ;
#108 = DIRECTION ( 'NONE',  ( 0.0000000000000000000, 0.0000000000000000000, 1.000000000000000000 ) ) ;
#109 = DIRECTION ( 'NONE',  ( 0.0000000000000000000, 0.0000000000000000000, 1.000000000000000000 ) ) ;
#110 = FACE_OUTER_BOUND ( 'NONE', #137, .T. ) ;
#111 = APPROVAL ( #166, 'UNSPECIFIED' ) ;
#112 = SHAPE_DEFINITION_REPRESENTATION ( #147, #85 ) ;
#113 = APPROVAL_STATUS ( 'not_yet_approved' ) ;
#114 = VERTEX_POINT ( 'NONE', #14 ) ;
#115 = PERSON_AND_ORGANIZATION ( #75, #9 ) ;
#116 = PERSON_AND_ORGANIZATION_ROLE ( 'creator' ) ;
#117 = AXIS2_PLACEMENT_3D ( 'NONE', #161, #48, #80 ) ;
#118 = MANIFOLD_SOLID_BREP ( 'Extrude1', #8 ) ;
#119 = ORIENTED_EDGE ( 'NONE', *, *, #6, .F. ) ;
#120 = PERSON_AND_ORGANIZATION ( #75, #9 ) ;
#121 = CC_DESIGN_PERSON_AND_ORGANIZATION_ASSIGNMENT ( #30, #70, ( #10 ) ) ;
#122 = FACE_OUTER_BOUND ( 'NONE', #96, .T. ) ;
#123 = APPROVAL_PERSON_ORGANIZATION ( #157, #36, #170 ) ;
#124 = LOCAL_TIME ( 8, 3, 49.00000000000000000, #66 ) ;
#125 = CARTESIAN_POINT ( 'NONE',  ( 0.0000000000000000000, 0.0000000000000000000, -1.000000000000000000 ) ) ;
#126 = DIRECTION ( 'NONE',  ( 1.000000000000000000, 0.0000000000000000000, 0.0000000000000000000 ) ) ;
#127 = DIRECTION ( 'NONE',  ( 0.0000000000000000000, 0.0000000000000000000, 1.000000000000000000 ) ) ;
#128 = APPROVAL_DATE_TIME ( #150, #111 ) ;
#129 = DIRECTION ( 'NONE',  ( 1.000000000000000000, 0.0000000000000000000, 0.0000000000000000000 ) ) ;
#130 = ADVANCED_FACE ( 'NONE', ( #156 ), #91, .T. ) ;
#131 = ADVANCED_FACE ( 'NONE', ( #122 ), #79, .T. ) ;
#132 = ORIENTED_EDGE ( 'NONE', *, *, #133, .T. ) ;
#133 = EDGE_CURVE ( 'NONE', #28, #143, #82, .T. ) ;
#134 = APPROVAL_PERSON_ORGANIZATION ( #172, #111, #71 ) ;
#135 = PRODUCT ( 'Web Model 84459_13330', 'Web Model 84459_13330', '', ( #167 ) ) ;
#136 = DIRECTION ( 'NONE',  ( 1.000000000000000000, 0.0000000000000000000, 0.0000000000000000000 ) ) ;
#137 = EDGE_LOOP ( 'NONE', ( #119, #149 ) ) ;
#138 = DIRECTION ( 'NONE',  ( 1.000000000000000000, 0.0000000000000000000, -0.0000000000000000000 ) ) ;
#139 = CARTESIAN_POINT ( 'NONE',  ( -2.500000000000000000, 3.061616997868383141E-16, 0.0000000000000000000 ) ) ;
#140 = DIRECTION ( 'NONE',  ( 0.0000000000000000000, 0.0000000000000000000, 1.000000000000000000 ) ) ;
#141 = COORDINATED_UNIVERSAL_TIME_OFFSET ( 5, 0, .BEHIND. ) ;
#142 = APPROVAL ( #4, 'UNSPECIFIED' ) ;
#143 = VERTEX_POINT ( 'NONE', #139 ) ;
#144 = SECURITY_CLASSIFICATION_LEVEL ( 'unclassified' ) ;
#145 = AXIS2_PLACEMENT_3D ( 'NONE', #54, #152, #126 ) ;
#146 = VECTOR ( 'NONE', #52, 1000.000000000000000 ) ;
#147 = PRODUCT_DEFINITION_SHAPE ( 'NONE', 'NONE',  #72 ) ;
#148 = CARTESIAN_POINT ( 'NONE',  ( -2.500000000000000000, 3.061616997868383141E-16, -1.000000000000000000 ) ) ;
#149 = ORIENTED_EDGE ( 'NONE', *, *, #106, .F. ) ;
#150 = DATE_AND_TIME ( #162, #159 ) ;
#151 = CC_DESIGN_APPROVAL ( #36, ( #103 ) ) ;
#152 = DIRECTION ( 'NONE',  ( 0.0000000000000000000, 0.0000000000000000000, 1.000000000000000000 ) ) ;
#153 = AXIS2_PLACEMENT_3D ( 'NONE', #98, #140, #83 ) ;
#154 = DATE_AND_TIME ( #67, #44 ) ;
#155 = DATE_AND_TIME ( #18, #93 ) ;
#156 = FACE_OUTER_BOUND ( 'NONE', #92, .T. ) ;
#157 = PERSON_AND_ORGANIZATION ( #75, #9 ) ;
#158 = ORIENTED_EDGE ( 'NONE', *, *, #59, .T. ) ;
#159 = LOCAL_TIME ( 8, 3, 49.00000000000000000, #50 ) ;
#160 = CIRCLE ( 'NONE', #35, 2.500000000000000000 ) ;
#161 = CARTESIAN_POINT ( 'NONE',  ( 0.0000000000000000000, 0.0000000000000000000, -1.000000000000000000 ) ) ;
#162 = CALENDAR_DATE ( 2020, 4, 11 ) ;
#163 = EDGE_CURVE ( 'NONE', #143, #169, #11, .T. ) ;
#164 = DIRECTION ( 'NONE',  ( 0.0000000000000000000, 0.0000000000000000000, 1.000000000000000000 ) ) ;
#165 = CARTESIAN_POINT ( 'NONE',  ( -2.500000000000000000, 3.061616997868383141E-16, -1.000000000000000000 ) ) ;
#166 = APPROVAL_STATUS ( 'not_yet_approved' ) ;
#167 = MECHANICAL_CONTEXT ( 'NONE', #90, 'mechanical' ) ;
#168 = CC_DESIGN_APPROVAL ( #111, ( #72 ) ) ;
#169 = VERTEX_POINT ( 'NONE', #39 ) ;
#170 = APPROVAL_ROLE ( '' ) ;
#171 = DATE_TIME_ROLE ( 'creation_date' ) ;
#172 = PERSON_AND_ORGANIZATION ( #75, #9 ) ;
#173 = AXIS2_PLACEMENT_3D ( 'NONE', #99, #127, #129 ) ;
#174 = PERSON_AND_ORGANIZATION ( #75, #9 ) ;
#175 = CC_DESIGN_PERSON_AND_ORGANIZATION_ASSIGNMENT ( #26, #42, ( #135 ) ) ;
ENDSEC;
END-ISO-10303-21;
