ISO-10303-21;
HEADER;
FILE_DESCRIPTION (( 'STEP AP203' ),
    '1' );
FILE_NAME ('Web Model 68401.STEP',
    '2017-01-31T19:56:54',
    ( '' ),
    ( '' ),
    'SwSTEP 2.0',
    'SolidWorks 2016',
    '' );
FILE_SCHEMA (( 'CONFIG_CONTROL_DESIGN' ));
ENDSEC;

DATA;
#1 = DIRECTION ( 'NONE',  ( -1.000000000000000000, 1.110223024625156300E-015, 0.0000000000000000000 ) ) ;
#2 = CARTESIAN_POINT ( 'NONE',  ( -8.750000000000000000, 6.249999999999999100, 3.000000000000000000 ) ) ;
#3 = VECTOR ( 'NONE', #50, 1000.000000000000000 ) ;
#4 = ORIENTED_EDGE ( 'NONE', *, *, #24, .T. ) ;
#5 = DESIGN_CONTEXT ( 'detailed design', #174, 'design' ) ;
#6 = DIRECTION ( 'NONE',  ( -0.0000000000000000000, 0.0000000000000000000, -1.000000000000000000 ) ) ;
#7 = AXIS2_PLACEMENT_3D ( 'NONE', #89, #192, #6 ) ;
#8 = DIRECTION ( 'NONE',  ( 0.0000000000000000000, 0.0000000000000000000, 1.000000000000000000 ) ) ;
#9 = COORDINATED_UNIVERSAL_TIME_OFFSET ( 5, 0, .BEHIND. ) ;
#10 = PERSON_AND_ORGANIZATION ( #55, #160 ) ;
#11 = APPROVAL_STATUS ( 'not_yet_approved' ) ;
#12 =( GEOMETRIC_REPRESENTATION_CONTEXT ( 3 ) GLOBAL_UNCERTAINTY_ASSIGNED_CONTEXT ( ( #22 ) ) GLOBAL_UNIT_ASSIGNED_CONTEXT ( ( #26, #145, #117 ) ) REPRESENTATION_CONTEXT ( 'NONE', 'WORKASPACE' ) );
#13 = MECHANICAL_CONTEXT ( 'NONE', #92, 'mechanical' ) ;
#14 = VECTOR ( 'NONE', #108, 1000.000000000000000 ) ;
#15 = ORIENTED_EDGE ( 'NONE', *, *, #116, .T. ) ;
#16 = LOCAL_TIME ( 14, 56, 54.00000000000000000, #144 ) ;
#17 = EDGE_CURVE ( 'NONE', #181, #51, #97, .T. ) ;
#18 = FACE_OUTER_BOUND ( 'NONE', #197, .T. ) ;
#19 = CARTESIAN_POINT ( 'NONE',  ( -8.750000000000000000, -6.250000000000000900, 0.0000000000000000000 ) ) ;
#20 = ORIENTED_EDGE ( 'NONE', *, *, #77, .F. ) ;
#21 = FACE_OUTER_BOUND ( 'NONE', #75, .T. ) ;
#22 = UNCERTAINTY_MEASURE_WITH_UNIT (LENGTH_MEASURE( 1.000000000000000100E-005 ), #26, 'distance_accuracy_value', 'NONE');
#23 = CARTESIAN_POINT ( 'NONE',  ( -8.750000000000000000, -6.250000000000000900, 0.0000000000000000000 ) ) ;
#24 = EDGE_CURVE ( 'NONE', #81, #51, #79, .T. ) ;
#25 = ORIENTED_EDGE ( 'NONE', *, *, #44, .F. ) ;
#26 =( LENGTH_UNIT ( ) NAMED_UNIT ( * ) SI_UNIT ( .MILLI., .METRE. ) );
#27 = APPLICATION_PROTOCOL_DEFINITION ( 'international standard', 'config_control_design', 1994, #92 ) ;
#28 = DIRECTION ( 'NONE',  ( -0.0000000000000000000, -0.0000000000000000000, -1.000000000000000000 ) ) ;
#29 = VECTOR ( 'NONE', #110, 1000.000000000000000 ) ;
#30 = PRODUCT ( 'Web Model 68401', 'Web Model 68401', '', ( #13 ) ) ;
#31 = APPROVAL ( #11, 'UNSPECIFIED' ) ;
#32 = ORIENTED_EDGE ( 'NONE', *, *, #213, .F. ) ;
#33 = ORIENTED_EDGE ( 'NONE', *, *, #116, .F. ) ;
#34 = VECTOR ( 'NONE', #234, 1000.000000000000000 ) ;
#35 = MANIFOLD_SOLID_BREP ( 'Extrude1', #211 ) ;
#36 = CARTESIAN_POINT ( 'NONE',  ( 8.750000000000000000, -6.250000000000000900, 0.0000000000000000000 ) ) ;
#37 = PERSON_AND_ORGANIZATION ( #55, #160 ) ;
#38 = ORIENTED_EDGE ( 'NONE', *, *, #109, .T. ) ;
#39 = ORIENTED_EDGE ( 'NONE', *, *, #237, .F. ) ;
#40 = DIRECTION ( 'NONE',  ( 1.000000000000000000, 0.0000000000000000000, 0.0000000000000000000 ) ) ;
#41 = APPROVAL_PERSON_ORGANIZATION ( #194, #126, #224 ) ;
#42 = PERSON_AND_ORGANIZATION ( #55, #160 ) ;
#43 = ORIENTED_EDGE ( 'NONE', *, *, #177, .T. ) ;
#44 = EDGE_CURVE ( 'NONE', #49, #171, #101, .T. ) ;
#45 = CARTESIAN_POINT ( 'NONE',  ( 0.0000000000000000000, 0.0000000000000000000, 0.0000000000000000000 ) ) ;
#46 = PLANE ( 'NONE',  #7 ) ;
#47 = CARTESIAN_POINT ( 'NONE',  ( -8.750000000000000000, 6.249999999999999100, 0.0000000000000000000 ) ) ;
#48 = LINE ( 'NONE', #196, #127 ) ;
#49 = VERTEX_POINT ( 'NONE', #82 ) ;
#50 = DIRECTION ( 'NONE',  ( -0.0000000000000000000, -0.0000000000000000000, -1.000000000000000000 ) ) ;
#51 = VERTEX_POINT ( 'NONE', #36 ) ;
#52 = DIRECTION ( 'NONE',  ( 1.000000000000000000, 0.0000000000000000000, 0.0000000000000000000 ) ) ;
#53 = APPROVAL_STATUS ( 'not_yet_approved' ) ;
#54 = LINE ( 'NONE', #172, #188 ) ;
#55 = PERSON ( 'UNSPECIFIED', 'UNSPECIFIED', 'UNSPECIFIED', ('UNSPECIFIED'), ('UNSPECIFIED'), ('UNSPECIFIED') ) ;
#56 = AXIS2_PLACEMENT_3D ( 'NONE', #45, #8, #52 ) ;
#57 = CC_DESIGN_PERSON_AND_ORGANIZATION_ASSIGNMENT ( #96, #207, ( #156 ) ) ;
#58 = APPROVAL_DATE_TIME ( #112, #190 ) ;
#59 = ADVANCED_FACE ( 'NONE', ( #18 ), #63, .F. ) ;
#60 = LINE ( 'NONE', #158, #139 ) ;
#61 = EDGE_LOOP ( 'NONE', ( #195, #149, #119, #161 ) ) ;
#62 = CARTESIAN_POINT ( 'NONE',  ( 8.750000000000000000, -6.250000000000000900, 3.000000000000000000 ) ) ;
#63 = PLANE ( 'NONE',  #235 ) ;
#64 = SECURITY_CLASSIFICATION ( '', '', #163 ) ;
#65 = CARTESIAN_POINT ( 'NONE',  ( -8.750000000000000000, -6.250000000000000900, 3.000000000000000000 ) ) ;
#66 = LINE ( 'NONE', #67, #14 ) ;
#67 = CARTESIAN_POINT ( 'NONE',  ( -8.750000000000000000, 6.249999999999999100, 3.000000000000000000 ) ) ;
#68 = ORIENTED_EDGE ( 'NONE', *, *, #213, .T. ) ;
#69 = DIRECTION ( 'NONE',  ( 0.0000000000000000000, -0.0000000000000000000, -1.000000000000000000 ) ) ;
#70 = VERTEX_POINT ( 'NONE', #124 ) ;
#71 = EDGE_CURVE ( 'NONE', #51, #114, #95, .T. ) ;
#72 = PERSON_AND_ORGANIZATION_ROLE ( 'design_supplier' ) ;
#73 = LOCAL_TIME ( 14, 56, 54.00000000000000000, #223 ) ;
#74 = FACE_OUTER_BOUND ( 'NONE', #216, .T. ) ;
#75 = EDGE_LOOP ( 'NONE', ( #38, #130, #25, #155 ) ) ;
#76 = ADVANCED_FACE ( 'NONE', ( #84 ), #214, .F. ) ;
#77 = EDGE_CURVE ( 'NONE', #181, #49, #60, .T. ) ;
#78 = CALENDAR_DATE ( 2017, 31, 1 ) ;
#79 = LINE ( 'NONE', #19, #34 ) ;
#80 = DIRECTION ( 'NONE',  ( 0.0000000000000000000, 1.000000000000000000, 0.0000000000000000000 ) ) ;
#81 = VERTEX_POINT ( 'NONE', #23 ) ;
#82 = CARTESIAN_POINT ( 'NONE',  ( 8.750000000000014200, 6.249999999999999100, 3.000000000000000000 ) ) ;
#83 = DATE_AND_TIME ( #173, #94 ) ;
#84 = FACE_OUTER_BOUND ( 'NONE', #142, .T. ) ;
#85 = EDGE_LOOP ( 'NONE', ( #104, #39, #20, #122 ) ) ;
#86 = DIRECTION ( 'NONE',  ( 1.110223024625156500E-015, 1.000000000000000000, -0.0000000000000000000 ) ) ;
#87 = DIRECTION ( 'NONE',  ( -0.0000000000000000000, 0.0000000000000000000, 1.000000000000000000 ) ) ;
#88 = CC_DESIGN_APPROVAL ( #31, ( #203 ) ) ;
#89 = CARTESIAN_POINT ( 'NONE',  ( -8.750000000000000000, 6.249999999999999100, 3.000000000000000000 ) ) ;
#90 = APPROVAL_PERSON_ORGANIZATION ( #37, #31, #193 ) ;
#91 = CARTESIAN_POINT ( 'NONE',  ( 8.750000000000014200, 6.249999999999999100, 3.000000000000000000 ) ) ;
#92 = APPLICATION_CONTEXT ( 'configuration controlled 3d designs of mechanical parts and assemblies' ) ;
#93 = APPLICATION_PROTOCOL_DEFINITION ( 'international standard', 'config_control_design', 1994, #174 ) ;
#94 = LOCAL_TIME ( 14, 56, 54.00000000000000000, #178 ) ;
#95 = LINE ( 'NONE', #105, #121 ) ;
#96 = PERSON_AND_ORGANIZATION ( #55, #160 ) ;
#97 = LINE ( 'NONE', #62, #215 ) ;
#98 = ORIENTED_EDGE ( 'NONE', *, *, #24, .F. ) ;
#99 = ADVANCED_BREP_SHAPE_REPRESENTATION ( 'Web Model 68401', ( #35, #56 ), #12 ) ;
#100 = APPROVAL_DATE_TIME ( #120, #31 ) ;
#101 = LINE ( 'NONE', #201, #179 ) ;
#102 = VECTOR ( 'NONE', #187, 1000.000000000000000 ) ;
#103 = CC_DESIGN_PERSON_AND_ORGANIZATION_ASSIGNMENT ( #10, #162, ( #203 ) ) ;
#104 = ORIENTED_EDGE ( 'NONE', *, *, #71, .T. ) ;
#105 = CARTESIAN_POINT ( 'NONE',  ( 8.750000000000014200, 6.249999999999999100, 0.0000000000000000000 ) ) ;
#106 = DIRECTION ( 'NONE',  ( 1.000000000000000000, 0.0000000000000000000, 0.0000000000000000000 ) ) ;
#107 = DATE_AND_TIME ( #78, #132 ) ;
#108 = DIRECTION ( 'NONE',  ( 0.0000000000000000000, -1.000000000000000000, 0.0000000000000000000 ) ) ;
#109 = EDGE_CURVE ( 'NONE', #114, #135, #136, .T. ) ;
#110 = DIRECTION ( 'NONE',  ( -1.000000000000000000, -0.0000000000000000000, -0.0000000000000000000 ) ) ;
#111 = CC_DESIGN_PERSON_AND_ORGANIZATION_ASSIGNMENT ( #151, #159, ( #30 ) ) ;
#112 = DATE_AND_TIME ( #176, #73 ) ;
#113 = PERSON_AND_ORGANIZATION_ROLE ( 'classification_officer' ) ;
#114 = VERTEX_POINT ( 'NONE', #157 ) ;
#115 = APPROVAL_ROLE ( '' ) ;
#116 = EDGE_CURVE ( 'NONE', #135, #81, #209, .T. ) ;
#117 =( NAMED_UNIT ( * ) SI_UNIT ( $, .STERADIAN. ) SOLID_ANGLE_UNIT ( ) );
#118 = LINE ( 'NONE', #152, #3 ) ;
#119 = ORIENTED_EDGE ( 'NONE', *, *, #147, .T. ) ;
#120 = DATE_AND_TIME ( #219, #16 ) ;
#121 = VECTOR ( 'NONE', #182, 1000.000000000000000 ) ;
#122 = ORIENTED_EDGE ( 'NONE', *, *, #17, .T. ) ;
#123 = DIRECTION ( 'NONE',  ( -0.0000000000000000000, -0.0000000000000000000, -1.000000000000000000 ) ) ;
#124 = CARTESIAN_POINT ( 'NONE',  ( -8.750000000000000000, -6.250000000000000900, 3.000000000000000000 ) ) ;
#125 = DATE_AND_TIME ( #164, #205 ) ;
#126 = APPROVAL ( #53, 'UNSPECIFIED' ) ;
#127 = VECTOR ( 'NONE', #28, 1000.000000000000000 ) ;
#128 = DIRECTION ( 'NONE',  ( -0.0000000000000000000, 0.0000000000000000000, 1.000000000000000000 ) ) ;
#129 = APPROVAL_PERSON_ORGANIZATION ( #166, #190, #115 ) ;
#130 = ORIENTED_EDGE ( 'NONE', *, *, #177, .F. ) ;
#131 = DIRECTION ( 'NONE',  ( 0.0000000000000000000, -1.000000000000000000, 0.0000000000000000000 ) ) ;
#132 = LOCAL_TIME ( 14, 56, 54.00000000000000000, #9 ) ;
#133 = ORIENTED_EDGE ( 'NONE', *, *, #147, .F. ) ;
#134 = DIRECTION ( 'NONE',  ( 1.000000000000000000, 0.0000000000000000000, 0.0000000000000000000 ) ) ;
#135 = VERTEX_POINT ( 'NONE', #221 ) ;
#136 = LINE ( 'NONE', #47, #29 ) ;
#137 = ADVANCED_FACE ( 'NONE', ( #21 ), #222, .F. ) ;
#138 = CARTESIAN_POINT ( 'NONE',  ( -8.750000000000000000, -6.250000000000000900, 3.000000000000000000 ) ) ;
#139 = VECTOR ( 'NONE', #86, 1000.000000000000000 ) ;
#140 = DIRECTION ( 'NONE',  ( -1.110223024625156300E-015, -1.000000000000000000, 0.0000000000000000000 ) ) ;
#141 = CARTESIAN_POINT ( 'NONE',  ( 8.750000000000000000, -6.250000000000000900, 3.000000000000000000 ) ) ;
#142 = EDGE_LOOP ( 'NONE', ( #4, #233, #154, #68 ) ) ;
#143 = DATE_TIME_ROLE ( 'classification_date' ) ;
#144 = COORDINATED_UNIVERSAL_TIME_OFFSET ( 5, 0, .BEHIND. ) ;
#145 =( NAMED_UNIT ( * ) PLANE_ANGLE_UNIT ( ) SI_UNIT ( $, .RADIAN. ) );
#146 = DATE_TIME_ROLE ( 'creation_date' ) ;
#147 = EDGE_CURVE ( 'NONE', #171, #70, #66, .T. ) ;
#148 = ORIENTED_EDGE ( 'NONE', *, *, #71, .F. ) ;
#149 = ORIENTED_EDGE ( 'NONE', *, *, #44, .T. ) ;
#150 = DIRECTION ( 'NONE',  ( -1.000000000000000000, -0.0000000000000000000, -0.0000000000000000000 ) ) ;
#151 = PERSON_AND_ORGANIZATION ( #55, #160 ) ;
#152 = CARTESIAN_POINT ( 'NONE',  ( -8.750000000000000000, 6.249999999999999100, 3.000000000000000000 ) ) ;
#153 = FACE_OUTER_BOUND ( 'NONE', #85, .T. ) ;
#154 = ORIENTED_EDGE ( 'NONE', *, *, #183, .F. ) ;
#155 = ORIENTED_EDGE ( 'NONE', *, *, #237, .T. ) ;
#156 = PRODUCT_DEFINITION ( 'UNKNOWN', '', #203, #5 ) ;
#157 = CARTESIAN_POINT ( 'NONE',  ( 8.750000000000014200, 6.249999999999999100, 0.0000000000000000000 ) ) ;
#158 = CARTESIAN_POINT ( 'NONE',  ( 8.750000000000014200, 6.249999999999999100, 3.000000000000000000 ) ) ;
#159 = PERSON_AND_ORGANIZATION_ROLE ( 'design_owner' ) ;
#160 = ORGANIZATION ( 'UNSPECIFIED', 'UNSPECIFIED', '' ) ;
#161 = ORIENTED_EDGE ( 'NONE', *, *, #183, .T. ) ;
#162 = PERSON_AND_ORGANIZATION_ROLE ( 'creator' ) ;
#163 = SECURITY_CLASSIFICATION_LEVEL ( 'unclassified' ) ;
#164 = CALENDAR_DATE ( 2017, 31, 1 ) ;
#165 = CC_DESIGN_APPROVAL ( #190, ( #156 ) ) ;
#166 = PERSON_AND_ORGANIZATION ( #55, #160 ) ;
#167 = VECTOR ( 'NONE', #131, 1000.000000000000000 ) ;
#168 = ORIENTED_EDGE ( 'NONE', *, *, #109, .F. ) ;
#169 = PLANE ( 'NONE',  #229 ) ;
#170 = PLANE ( 'NONE',  #231 ) ;
#171 = VERTEX_POINT ( 'NONE', #2 ) ;
#172 = CARTESIAN_POINT ( 'NONE',  ( -8.750000000000000000, -6.250000000000000900, 3.000000000000000000 ) ) ;
#173 = CALENDAR_DATE ( 2017, 31, 1 ) ;
#174 = APPLICATION_CONTEXT ( 'configuration controlled 3d designs of mechanical parts and assemblies' ) ;
#175 = AXIS2_PLACEMENT_3D ( 'NONE', #138, #80, #191 ) ;
#176 = CALENDAR_DATE ( 2017, 31, 1 ) ;
#177 = EDGE_CURVE ( 'NONE', #171, #135, #118, .T. ) ;
#178 = COORDINATED_UNIVERSAL_TIME_OFFSET ( 5, 0, .BEHIND. ) ;
#179 = VECTOR ( 'NONE', #150, 1000.000000000000000 ) ;
#180 = LINE ( 'NONE', #65, #102 ) ;
#181 = VERTEX_POINT ( 'NONE', #141 ) ;
#182 = DIRECTION ( 'NONE',  ( 1.110223024625156500E-015, 1.000000000000000000, -0.0000000000000000000 ) ) ;
#183 = EDGE_CURVE ( 'NONE', #70, #181, #54, .T. ) ;
#184 = COORDINATED_UNIVERSAL_TIME_OFFSET ( 5, 0, .BEHIND. ) ;
#185 = PRODUCT_DEFINITION_SHAPE ( 'NONE', 'NONE',  #156 ) ;
#186 = CARTESIAN_POINT ( 'NONE',  ( 8.750000000000000000, -6.250000000000000900, 3.000000000000000000 ) ) ;
#187 = DIRECTION ( 'NONE',  ( -0.0000000000000000000, -0.0000000000000000000, -1.000000000000000000 ) ) ;
#188 = VECTOR ( 'NONE', #106, 1000.000000000000000 ) ;
#189 = CARTESIAN_POINT ( 'NONE',  ( -8.750000000000000000, 6.249999999999999100, 0.0000000000000000000 ) ) ;
#190 = APPROVAL ( #208, 'UNSPECIFIED' ) ;
#191 = DIRECTION ( 'NONE',  ( 0.0000000000000000000, -0.0000000000000000000, 1.000000000000000000 ) ) ;
#192 = DIRECTION ( 'NONE',  ( 1.000000000000000000, 0.0000000000000000000, -0.0000000000000000000 ) ) ;
#193 = APPROVAL_ROLE ( '' ) ;
#194 = PERSON_AND_ORGANIZATION ( #55, #160 ) ;
#195 = ORIENTED_EDGE ( 'NONE', *, *, #77, .T. ) ;
#196 = CARTESIAN_POINT ( 'NONE',  ( 8.750000000000014200, 6.249999999999999100, 3.000000000000000000 ) ) ;
#197 = EDGE_LOOP ( 'NONE', ( #148, #98, #33, #168 ) ) ;
#198 = CC_DESIGN_SECURITY_CLASSIFICATION ( #64, ( #203 ) ) ;
#199 = ADVANCED_FACE ( 'NONE', ( #74 ), #46, .F. ) ;
#200 = AXIS2_PLACEMENT_3D ( 'NONE', #204, #220, #69 ) ;
#201 = CARTESIAN_POINT ( 'NONE',  ( -8.750000000000000000, 6.249999999999999100, 3.000000000000000000 ) ) ;
#202 = CC_DESIGN_DATE_AND_TIME_ASSIGNMENT ( #125, #146, ( #156 ) ) ;
#203 = PRODUCT_DEFINITION_FORMATION_WITH_SPECIFIED_SOURCE ( 'ANY', '', #30, .NOT_KNOWN. ) ;
#204 = CARTESIAN_POINT ( 'NONE',  ( -8.750000000000000000, 6.249999999999999100, 3.000000000000000000 ) ) ;
#205 = LOCAL_TIME ( 14, 56, 54.00000000000000000, #184 ) ;
#206 = PRODUCT_RELATED_PRODUCT_CATEGORY ( 'detail', '', ( #30 ) ) ;
#207 = PERSON_AND_ORGANIZATION_ROLE ( 'creator' ) ;
#208 = APPROVAL_STATUS ( 'not_yet_approved' ) ;
#209 = LINE ( 'NONE', #189, #167 ) ;
#210 = ADVANCED_FACE ( 'NONE', ( #153 ), #170, .F. ) ;
#211 = CLOSED_SHELL ( 'NONE', ( #210, #137, #199, #76, #236, #59 ) ) ;
#212 = CC_DESIGN_PERSON_AND_ORGANIZATION_ASSIGNMENT ( #226, #113, ( #64 ) ) ;
#213 = EDGE_CURVE ( 'NONE', #70, #81, #180, .T. ) ;
#214 = PLANE ( 'NONE',  #175 ) ;
#215 = VECTOR ( 'NONE', #123, 1000.000000000000000 ) ;
#216 = EDGE_LOOP ( 'NONE', ( #15, #32, #133, #43 ) ) ;
#217 = CARTESIAN_POINT ( 'NONE',  ( 8.750000000000000000, -6.250000000000000900, 0.0000000000000000000 ) ) ;
#218 = CC_DESIGN_DATE_AND_TIME_ASSIGNMENT ( #83, #143, ( #64 ) ) ;
#219 = CALENDAR_DATE ( 2017, 31, 1 ) ;
#220 = DIRECTION ( 'NONE',  ( 0.0000000000000000000, -1.000000000000000000, 0.0000000000000000000 ) ) ;
#221 = CARTESIAN_POINT ( 'NONE',  ( -8.750000000000000000, 6.249999999999999100, 0.0000000000000000000 ) ) ;
#222 = PLANE ( 'NONE',  #200 ) ;
#223 = COORDINATED_UNIVERSAL_TIME_OFFSET ( 5, 0, .BEHIND. ) ;
#224 = APPROVAL_ROLE ( '' ) ;
#225 = APPROVAL_DATE_TIME ( #107, #126 ) ;
#226 = PERSON_AND_ORGANIZATION ( #55, #160 ) ;
#227 = CC_DESIGN_APPROVAL ( #126, ( #64 ) ) ;
#228 = FACE_OUTER_BOUND ( 'NONE', #61, .T. ) ;
#229 = AXIS2_PLACEMENT_3D ( 'NONE', #186, #87, #134 ) ;
#230 = CC_DESIGN_PERSON_AND_ORGANIZATION_ASSIGNMENT ( #42, #72, ( #203 ) ) ;
#231 = AXIS2_PLACEMENT_3D ( 'NONE', #91, #1, #140 ) ;
#232 = SHAPE_DEFINITION_REPRESENTATION ( #185, #99 ) ;
#233 = ORIENTED_EDGE ( 'NONE', *, *, #17, .F. ) ;
#234 = DIRECTION ( 'NONE',  ( 1.000000000000000000, 0.0000000000000000000, 0.0000000000000000000 ) ) ;
#235 = AXIS2_PLACEMENT_3D ( 'NONE', #217, #128, #40 ) ;
#236 = ADVANCED_FACE ( 'NONE', ( #228 ), #169, .T. ) ;
#237 = EDGE_CURVE ( 'NONE', #49, #114, #48, .T. ) ;
ENDSEC;
END-ISO-10303-21;
