ISO-10303-21;
HEADER;
FILE_DESCRIPTION (( 'STEP AP203' ),
    '1' );
FILE_NAME ('Web Model 68509.STEP',
    '2017-02-01T13:24:23',
    ( '' ),
    ( '' ),
    'SwSTEP 2.0',
    'SolidWorks 2016',
    '' );
FILE_SCHEMA (( 'CONFIG_CONTROL_DESIGN' ));
ENDSEC;

DATA;
#1 = FACE_OUTER_BOUND ( 'NONE', #131, .T. ) ;
#2 = DESIGN_CONTEXT ( 'detailed design', #30, 'design' ) ;
#3 = COORDINATED_UNIVERSAL_TIME_OFFSET ( 5, 0, .BEHIND. ) ;
#4 = LINE ( 'NONE', #145, #141 ) ;
#5 = AXIS2_PLACEMENT_3D ( 'NONE', #37, #25, #41 ) ;
#6 = LOCAL_TIME ( 8, 24, 23.00000000000000000, #3 ) ;
#7 = CARTESIAN_POINT ( 'NONE',  ( 0.0000000000000000000, 0.0000000000000000000, 1.000000000000000000 ) ) ;
#8 = ORIENTED_EDGE ( 'NONE', *, *, #50, .F. ) ;
#9 =( NAMED_UNIT ( * ) PLANE_ANGLE_UNIT ( ) SI_UNIT ( $, .RADIAN. ) );
#10 = DIRECTION ( 'NONE',  ( 1.000000000000000000, 0.0000000000000000000, 0.0000000000000000000 ) ) ;
#11 = APPROVAL ( #15, 'UNSPECIFIED' ) ;
#12 = DATE_AND_TIME ( #52, #63 ) ;
#13 = CARTESIAN_POINT ( 'NONE',  ( 0.0000000000000000000, 0.0000000000000000000, 0.0000000000000000000 ) ) ;
#14 = EDGE_LOOP ( 'NONE', ( #8, #107, #32, #99 ) ) ;
#15 = APPROVAL_STATUS ( 'not_yet_approved' ) ;
#16 = APPROVAL_ROLE ( '' ) ;
#17 = PRODUCT_DEFINITION_FORMATION_WITH_SPECIFIED_SOURCE ( 'ANY', '', #116, .NOT_KNOWN. ) ;
#18 = PERSON_AND_ORGANIZATION ( #101, #139 ) ;
#19 = ORIENTED_EDGE ( 'NONE', *, *, #50, .T. ) ;
#20 = APPROVAL_PERSON_ORGANIZATION ( #27, #11, #111 ) ;
#21 = CARTESIAN_POINT ( 'NONE',  ( 0.0000000000000000000, 0.0000000000000000000, 0.0000000000000000000 ) ) ;
#22 = DIRECTION ( 'NONE',  ( -0.0000000000000000000, -0.0000000000000000000, -1.000000000000000000 ) ) ;
#23 = UNCERTAINTY_MEASURE_WITH_UNIT (LENGTH_MEASURE( 1.000000000000000100E-005 ), #95, 'distance_accuracy_value', 'NONE');
#24 = VERTEX_POINT ( 'NONE', #79 ) ;
#25 = DIRECTION ( 'NONE',  ( 0.0000000000000000000, 0.0000000000000000000, 1.000000000000000000 ) ) ;
#26 = APPROVAL ( #68, 'UNSPECIFIED' ) ;
#27 = PERSON_AND_ORGANIZATION ( #101, #139 ) ;
#28 = AXIS2_PLACEMENT_3D ( 'NONE', #7, #160, #10 ) ;
#29 = ORIENTED_EDGE ( 'NONE', *, *, #58, .F. ) ;
#30 = APPLICATION_CONTEXT ( 'configuration controlled 3d designs of mechanical parts and assemblies' ) ;
#31 = APPROVAL_DATE_TIME ( #47, #26 ) ;
#32 = ORIENTED_EDGE ( 'NONE', *, *, #58, .T. ) ;
#33 = ADVANCED_FACE ( 'NONE', ( #153 ), #82, .T. ) ;
#34 = CYLINDRICAL_SURFACE ( 'NONE', #85, 25.00000000000000000 ) ;
#35 = CC_DESIGN_APPROVAL ( #26, ( #17 ) ) ;
#36 = ORIENTED_EDGE ( 'NONE', *, *, #78, .F. ) ;
#37 = CARTESIAN_POINT ( 'NONE',  ( 0.0000000000000000000, 0.0000000000000000000, 1.000000000000000000 ) ) ;
#38 = DIRECTION ( 'NONE',  ( 1.000000000000000000, 0.0000000000000000000, 0.0000000000000000000 ) ) ;
#39 = VECTOR ( 'NONE', #56, 1000.000000000000000 ) ;
#40 = APPLICATION_CONTEXT ( 'configuration controlled 3d designs of mechanical parts and assemblies' ) ;
#41 = DIRECTION ( 'NONE',  ( 1.000000000000000000, 0.0000000000000000000, 0.0000000000000000000 ) ) ;
#42 = LOCAL_TIME ( 8, 24, 23.00000000000000000, #165 ) ;
#43 = ORIENTED_EDGE ( 'NONE', *, *, #62, .T. ) ;
#44 = PERSON_AND_ORGANIZATION_ROLE ( 'creator' ) ;
#45 = EDGE_CURVE ( 'NONE', #24, #123, #114, .T. ) ;
#46 = CIRCLE ( 'NONE', #28, 25.00000000000000000 ) ;
#47 = DATE_AND_TIME ( #81, #6 ) ;
#48 = MECHANICAL_CONTEXT ( 'NONE', #40, 'mechanical' ) ;
#49 = CC_DESIGN_PERSON_AND_ORGANIZATION_ASSIGNMENT ( #90, #126, ( #17 ) ) ;
#50 = EDGE_CURVE ( 'NONE', #53, #142, #112, .T. ) ;
#51 = AXIS2_PLACEMENT_3D ( 'NONE', #21, #138, #97 ) ;
#52 = CALENDAR_DATE ( 2017, 1, 2 ) ;
#53 = VERTEX_POINT ( 'NONE', #94 ) ;
#54 = CALENDAR_DATE ( 2017, 1, 2 ) ;
#55 = PLANE ( 'NONE',  #159 ) ;
#56 = DIRECTION ( 'NONE',  ( -0.0000000000000000000, -0.0000000000000000000, -1.000000000000000000 ) ) ;
#57 = CARTESIAN_POINT ( 'NONE',  ( 0.0000000000000000000, 0.0000000000000000000, 1.000000000000000000 ) ) ;
#58 = EDGE_CURVE ( 'NONE', #123, #24, #83, .T. ) ;
#59 = DATE_AND_TIME ( #168, #93 ) ;
#60 = APPROVAL ( #151, 'UNSPECIFIED' ) ;
#61 = APPROVAL_DATE_TIME ( #169, #60 ) ;
#62 = EDGE_CURVE ( 'NONE', #142, #24, #77, .T. ) ;
#63 = LOCAL_TIME ( 8, 24, 23.00000000000000000, #136 ) ;
#64 = CC_DESIGN_PERSON_AND_ORGANIZATION_ASSIGNMENT ( #96, #69, ( #17 ) ) ;
#65 = DIRECTION ( 'NONE',  ( -1.000000000000000000, 0.0000000000000000000, 0.0000000000000000000 ) ) ;
#66 = DIRECTION ( 'NONE',  ( -0.0000000000000000000, -0.0000000000000000000, -1.000000000000000000 ) ) ;
#67 = DIRECTION ( 'NONE',  ( -1.000000000000000000, 0.0000000000000000000, 0.0000000000000000000 ) ) ;
#68 = APPROVAL_STATUS ( 'not_yet_approved' ) ;
#69 = PERSON_AND_ORGANIZATION_ROLE ( 'design_supplier' ) ;
#70 = EDGE_LOOP ( 'NONE', ( #91, #29 ) ) ;
#71 = PERSON_AND_ORGANIZATION_ROLE ( 'classification_officer' ) ;
#72 = AXIS2_PLACEMENT_3D ( 'NONE', #105, #121, #106 ) ;
#73 = FACE_OUTER_BOUND ( 'NONE', #70, .T. ) ;
#74 = APPLICATION_PROTOCOL_DEFINITION ( 'international standard', 'config_control_design', 1994, #30 ) ;
#75 = PERSON_AND_ORGANIZATION ( #101, #139 ) ;
#76 = ADVANCED_FACE ( 'NONE', ( #150 ), #34, .T. ) ;
#77 = LINE ( 'NONE', #162, #39 ) ;
#78 = EDGE_CURVE ( 'NONE', #142, #53, #46, .T. ) ;
#79 = CARTESIAN_POINT ( 'NONE',  ( -25.00000000000000000, 0.0000000000000000000, 0.0000000000000000000 ) ) ;
#80 = DIRECTION ( 'NONE',  ( 1.000000000000000000, 0.0000000000000000000, -0.0000000000000000000 ) ) ;
#81 = CALENDAR_DATE ( 2017, 1, 2 ) ;
#82 = PLANE ( 'NONE',  #156 ) ;
#83 = CIRCLE ( 'NONE', #72, 25.00000000000000000 ) ;
#84 = DATE_TIME_ROLE ( 'creation_date' ) ;
#85 = AXIS2_PLACEMENT_3D ( 'NONE', #57, #148, #67 ) ;
#86 = SECURITY_CLASSIFICATION_LEVEL ( 'unclassified' ) ;
#87 = CLOSED_SHELL ( 'NONE', ( #76, #100, #33, #129 ) ) ;
#88 = APPROVAL_PERSON_ORGANIZATION ( #128, #60, #173 ) ;
#89 = CC_DESIGN_APPROVAL ( #11, ( #98 ) ) ;
#90 = PERSON_AND_ORGANIZATION ( #101, #139 ) ;
#91 = ORIENTED_EDGE ( 'NONE', *, *, #45, .F. ) ;
#92 = CC_DESIGN_PERSON_AND_ORGANIZATION_ASSIGNMENT ( #75, #163, ( #116 ) ) ;
#93 = LOCAL_TIME ( 8, 24, 23.00000000000000000, #124 ) ;
#94 = CARTESIAN_POINT ( 'NONE',  ( 25.00000000000000000, 3.061616997868383000E-015, 1.000000000000000000 ) ) ;
#95 =( LENGTH_UNIT ( ) NAMED_UNIT ( * ) SI_UNIT ( .MILLI., .METRE. ) );
#96 = PERSON_AND_ORGANIZATION ( #101, #139 ) ;
#97 = DIRECTION ( 'NONE',  ( 1.000000000000000000, 0.0000000000000000000, 0.0000000000000000000 ) ) ;
#98 = SECURITY_CLASSIFICATION ( '', '', #86 ) ;
#99 = ORIENTED_EDGE ( 'NONE', *, *, #62, .F. ) ;
#100 = ADVANCED_FACE ( 'NONE', ( #1 ), #175, .T. ) ;
#101 = PERSON ( 'UNSPECIFIED', 'UNSPECIFIED', 'UNSPECIFIED', ('UNSPECIFIED'), ('UNSPECIFIED'), ('UNSPECIFIED') ) ;
#102 = CC_DESIGN_SECURITY_CLASSIFICATION ( #98, ( #17 ) ) ;
#103 = CARTESIAN_POINT ( 'NONE',  ( 25.00000000000000000, 3.061616997868383000E-015, 0.0000000000000000000 ) ) ;
#104 = ORIENTED_EDGE ( 'NONE', *, *, #78, .T. ) ;
#105 = CARTESIAN_POINT ( 'NONE',  ( 0.0000000000000000000, 0.0000000000000000000, 0.0000000000000000000 ) ) ;
#106 = DIRECTION ( 'NONE',  ( 1.000000000000000000, 0.0000000000000000000, 0.0000000000000000000 ) ) ;
#107 = ORIENTED_EDGE ( 'NONE', *, *, #133, .T. ) ;
#108 = ORIENTED_EDGE ( 'NONE', *, *, #45, .T. ) ;
#109 = SHAPE_DEFINITION_REPRESENTATION ( #174, #125 ) ;
#110 = CC_DESIGN_APPROVAL ( #60, ( #152 ) ) ;
#111 = APPROVAL_ROLE ( '' ) ;
#112 = CIRCLE ( 'NONE', #5, 25.00000000000000000 ) ;
#113 = LOCAL_TIME ( 8, 24, 23.00000000000000000, #140 ) ;
#114 = CIRCLE ( 'NONE', #167, 25.00000000000000000 ) ;
#115 = PERSON_AND_ORGANIZATION ( #101, #139 ) ;
#116 = PRODUCT ( 'Web Model 68509', 'Web Model 68509', '', ( #48 ) ) ;
#117 = PRODUCT_RELATED_PRODUCT_CATEGORY ( 'detail', '', ( #116 ) ) ;
#118 = CARTESIAN_POINT ( 'NONE',  ( 0.0000000000000000000, 0.0000000000000000000, 1.000000000000000000 ) ) ;
#119 = DIRECTION ( 'NONE',  ( 0.0000000000000000000, 0.0000000000000000000, 1.000000000000000000 ) ) ;
#120 = CALENDAR_DATE ( 2017, 1, 2 ) ;
#121 = DIRECTION ( 'NONE',  ( 0.0000000000000000000, 0.0000000000000000000, 1.000000000000000000 ) ) ;
#122 =( GEOMETRIC_REPRESENTATION_CONTEXT ( 3 ) GLOBAL_UNCERTAINTY_ASSIGNED_CONTEXT ( ( #23 ) ) GLOBAL_UNIT_ASSIGNED_CONTEXT ( ( #95, #9, #135 ) ) REPRESENTATION_CONTEXT ( 'NONE', 'WORKASPACE' ) );
#123 = VERTEX_POINT ( 'NONE', #103 ) ;
#124 = COORDINATED_UNIVERSAL_TIME_OFFSET ( 5, 0, .BEHIND. ) ;
#125 = ADVANCED_BREP_SHAPE_REPRESENTATION ( 'Web Model 68509', ( #154, #51 ), #122 ) ;
#126 = PERSON_AND_ORGANIZATION_ROLE ( 'creator' ) ;
#127 = ORIENTED_EDGE ( 'NONE', *, *, #133, .F. ) ;
#128 = PERSON_AND_ORGANIZATION ( #101, #139 ) ;
#129 = ADVANCED_FACE ( 'NONE', ( #73 ), #55, .F. ) ;
#130 = PERSON_AND_ORGANIZATION ( #101, #139 ) ;
#131 = EDGE_LOOP ( 'NONE', ( #127, #36, #43, #108 ) ) ;
#132 = CC_DESIGN_PERSON_AND_ORGANIZATION_ASSIGNMENT ( #115, #44, ( #152 ) ) ;
#133 = EDGE_CURVE ( 'NONE', #53, #123, #4, .T. ) ;
#134 = DIRECTION ( 'NONE',  ( 0.0000000000000000000, 0.0000000000000000000, 1.000000000000000000 ) ) ;
#135 =( NAMED_UNIT ( * ) SI_UNIT ( $, .STERADIAN. ) SOLID_ANGLE_UNIT ( ) );
#136 = COORDINATED_UNIVERSAL_TIME_OFFSET ( 5, 0, .BEHIND. ) ;
#137 = APPLICATION_PROTOCOL_DEFINITION ( 'international standard', 'config_control_design', 1994, #40 ) ;
#138 = DIRECTION ( 'NONE',  ( 0.0000000000000000000, 0.0000000000000000000, 1.000000000000000000 ) ) ;
#139 = ORGANIZATION ( 'UNSPECIFIED', 'UNSPECIFIED', '' ) ;
#140 = COORDINATED_UNIVERSAL_TIME_OFFSET ( 5, 0, .BEHIND. ) ;
#141 = VECTOR ( 'NONE', #22, 1000.000000000000000 ) ;
#142 = VERTEX_POINT ( 'NONE', #172 ) ;
#143 = CC_DESIGN_PERSON_AND_ORGANIZATION_ASSIGNMENT ( #18, #71, ( #98 ) ) ;
#144 = DIRECTION ( 'NONE',  ( 0.0000000000000000000, 0.0000000000000000000, 1.000000000000000000 ) ) ;
#145 = CARTESIAN_POINT ( 'NONE',  ( 25.00000000000000000, 3.061616997868383000E-015, 1.000000000000000000 ) ) ;
#146 = EDGE_LOOP ( 'NONE', ( #104, #19 ) ) ;
#147 = CARTESIAN_POINT ( 'NONE',  ( 0.0000000000000000000, 0.0000000000000000000, 0.0000000000000000000 ) ) ;
#148 = DIRECTION ( 'NONE',  ( -0.0000000000000000000, -0.0000000000000000000, -1.000000000000000000 ) ) ;
#149 = APPROVAL_DATE_TIME ( #12, #11 ) ;
#150 = FACE_OUTER_BOUND ( 'NONE', #14, .T. ) ;
#151 = APPROVAL_STATUS ( 'not_yet_approved' ) ;
#152 = PRODUCT_DEFINITION ( 'UNKNOWN', '', #17, #2 ) ;
#153 = FACE_OUTER_BOUND ( 'NONE', #146, .T. ) ;
#154 = MANIFOLD_SOLID_BREP ( 'Extrude1', #87 ) ;
#155 = CC_DESIGN_DATE_AND_TIME_ASSIGNMENT ( #59, #164, ( #98 ) ) ;
#156 = AXIS2_PLACEMENT_3D ( 'NONE', #118, #119, #80 ) ;
#157 = APPROVAL_PERSON_ORGANIZATION ( #130, #26, #16 ) ;
#158 = DIRECTION ( 'NONE',  ( 1.000000000000000000, 0.0000000000000000000, -0.0000000000000000000 ) ) ;
#159 = AXIS2_PLACEMENT_3D ( 'NONE', #147, #144, #158 ) ;
#160 = DIRECTION ( 'NONE',  ( 0.0000000000000000000, 0.0000000000000000000, 1.000000000000000000 ) ) ;
#161 = DATE_AND_TIME ( #54, #113 ) ;
#162 = CARTESIAN_POINT ( 'NONE',  ( -25.00000000000000000, 0.0000000000000000000, 1.000000000000000000 ) ) ;
#163 = PERSON_AND_ORGANIZATION_ROLE ( 'design_owner' ) ;
#164 = DATE_TIME_ROLE ( 'classification_date' ) ;
#165 = COORDINATED_UNIVERSAL_TIME_OFFSET ( 5, 0, .BEHIND. ) ;
#166 = CC_DESIGN_DATE_AND_TIME_ASSIGNMENT ( #161, #84, ( #152 ) ) ;
#167 = AXIS2_PLACEMENT_3D ( 'NONE', #13, #134, #38 ) ;
#168 = CALENDAR_DATE ( 2017, 1, 2 ) ;
#169 = DATE_AND_TIME ( #120, #42 ) ;
#170 = AXIS2_PLACEMENT_3D ( 'NONE', #171, #66, #65 ) ;
#171 = CARTESIAN_POINT ( 'NONE',  ( 0.0000000000000000000, 0.0000000000000000000, 1.000000000000000000 ) ) ;
#172 = CARTESIAN_POINT ( 'NONE',  ( -25.00000000000000000, 0.0000000000000000000, 1.000000000000000000 ) ) ;
#173 = APPROVAL_ROLE ( '' ) ;
#174 = PRODUCT_DEFINITION_SHAPE ( 'NONE', 'NONE',  #152 ) ;
#175 = CYLINDRICAL_SURFACE ( 'NONE', #170, 25.00000000000000000 ) ;
ENDSEC;
END-ISO-10303-21;
