ISO-10303-21;
HEADER;
FILE_DESCRIPTION (( 'STEP AP203' ),
    '1' );
FILE_NAME ('Web Model 19837_19867.step',
    '2022-04-06T15:06:24',
    ( 'WC' ),
    ( 'Windows Central' ),
    'SwSTEP 2.0',
    'SolidWorks 2021',
    '' );
FILE_SCHEMA (( 'CONFIG_CONTROL_DESIGN' ));
ENDSEC;

DATA;
#1 = DIRECTION ( 'NONE',  ( -0.000000000000000000, -0.000000000000000000, -1.000000000000000000 ) ) ;
#2 = ORIENTED_EDGE ( 'NONE', *, *, #11, .T. ) ;
#3 = DIRECTION ( 'NONE',  ( 1.000000000000000000, 0.000000000000000000, -0.000000000000000000 ) ) ;
#4 = DATE_TIME_ROLE ( 'classification_date' ) ;
#5 = PERSON_AND_ORGANIZATION ( #118, #120 ) ;
#6 = DIRECTION ( 'NONE',  ( 0.000000000000000000, 0.000000000000000000, 1.000000000000000000 ) ) ;
#7 = APPROVAL_DATE_TIME ( #145, #172 ) ;
#8 = DATE_AND_TIME ( #143, #39 ) ;
#9 = CC_DESIGN_PERSON_AND_ORGANIZATION_ASSIGNMENT ( #87, #115, ( #116 ) ) ;
#10 = APPROVAL_PERSON_ORGANIZATION ( #154, #78, #167 ) ;
#11 = EDGE_CURVE ( 'NONE', #106, #53, #105, .T. ) ;
#12 = ORIENTED_EDGE ( 'NONE', *, *, #29, .F. ) ;
#13 = APPROVAL_ROLE ( '' ) ;
#14 = AXIS2_PLACEMENT_3D ( 'NONE', #20, #50, #81 ) ;
#15 = ORIENTED_EDGE ( 'NONE', *, *, #142, .T. ) ;
#16 = APPROVAL_PERSON_ORGANIZATION ( #5, #172, #114 ) ;
#17 = CYLINDRICAL_SURFACE ( 'NONE', #100, 12.50000000000000000 ) ;
#18 = DIRECTION ( 'NONE',  ( 0.000000000000000000, 0.000000000000000000, 1.000000000000000000 ) ) ;
#19 = AXIS2_PLACEMENT_3D ( 'NONE', #153, #57, #34 ) ;
#20 = CARTESIAN_POINT ( 'NONE',  ( 0.000000000000000000, 0.000000000000000000, 0.000000000000000000 ) ) ;
#21 = PERSON_AND_ORGANIZATION_ROLE ( 'creator' ) ;
#22 = CARTESIAN_POINT ( 'NONE',  ( -12.50000000000000000, 0.000000000000000000, 5.000000000000000000 ) ) ;
#23 = DATE_TIME_ROLE ( 'creation_date' ) ;
#24 = ADVANCED_FACE ( 'NONE', ( #69 ), #109, .T. ) ;
#25 = ORIENTED_EDGE ( 'NONE', *, *, #29, .T. ) ;
#26 = APPLICATION_CONTEXT ( 'configuration controlled 3d designs of mechanical parts and assemblies' ) ;
#27 = UNCERTAINTY_MEASURE_WITH_UNIT (LENGTH_MEASURE( 1.000000000000000082E-05 ), #32, 'distance_accuracy_value', 'NONE');
#28 = CARTESIAN_POINT ( 'NONE',  ( 0.000000000000000000, 0.000000000000000000, 5.000000000000000000 ) ) ;
#29 = EDGE_CURVE ( 'NONE', #53, #93, #148, .T. ) ;
#30 = LINE ( 'NONE', #45, #155 ) ;
#31 = VECTOR ( 'NONE', #1, 1000.000000000000000 ) ;
#32 =( LENGTH_UNIT ( ) NAMED_UNIT ( * ) SI_UNIT ( .MILLI., .METRE. ) );
#33 = DIRECTION ( 'NONE',  ( 1.000000000000000000, 0.000000000000000000, 0.000000000000000000 ) ) ;
#34 = DIRECTION ( 'NONE',  ( 1.000000000000000000, 0.000000000000000000, 0.000000000000000000 ) ) ;
#35 = DATE_AND_TIME ( #64, #96 ) ;
#36 = FACE_OUTER_BOUND ( 'NONE', #75, .T. ) ;
#37 = COORDINATED_UNIVERSAL_TIME_OFFSET ( 5, 0, .BEHIND. ) ;
#38 = DIRECTION ( 'NONE',  ( 0.000000000000000000, 0.000000000000000000, 1.000000000000000000 ) ) ;
#39 = LOCAL_TIME ( 11, 6, 24.00000000000000000, #132 ) ;
#40 = APPROVAL ( #133, 'UNSPECIFIED' ) ;
#41 = CALENDAR_DATE ( 2022, 6, 4 ) ;
#42 = ORIENTED_EDGE ( 'NONE', *, *, #11, .F. ) ;
#43 = DIRECTION ( 'NONE',  ( -0.000000000000000000, -0.000000000000000000, -1.000000000000000000 ) ) ;
#44 = CALENDAR_DATE ( 2022, 6, 4 ) ;
#45 = CARTESIAN_POINT ( 'NONE',  ( 12.50000000000000000, 1.530808498934191521E-15, 5.000000000000000000 ) ) ;
#46 = PRODUCT_DEFINITION_SHAPE ( 'NONE', 'NONE',  #159 ) ;
#47 = SECURITY_CLASSIFICATION ( '', '', #62 ) ;
#48 = DIRECTION ( 'NONE',  ( 1.000000000000000000, 0.000000000000000000, 0.000000000000000000 ) ) ;
#49 = COORDINATED_UNIVERSAL_TIME_OFFSET ( 5, 0, .BEHIND. ) ;
#50 = DIRECTION ( 'NONE',  ( 0.000000000000000000, 0.000000000000000000, 1.000000000000000000 ) ) ;
#51 = AXIS2_PLACEMENT_3D ( 'NONE', #127, #18, #48 ) ;
#52 = ADVANCED_FACE ( 'NONE', ( #36 ), #55, .F. ) ;
#53 = VERTEX_POINT ( 'NONE', #151 ) ;
#54 = CC_DESIGN_SECURITY_CLASSIFICATION ( #47, ( #116 ) ) ;
#55 = PLANE ( 'NONE',  #88 ) ;
#56 = CC_DESIGN_PERSON_AND_ORGANIZATION_ASSIGNMENT ( #171, #72, ( #157 ) ) ;
#57 = DIRECTION ( 'NONE',  ( 0.000000000000000000, 0.000000000000000000, 1.000000000000000000 ) ) ;
#58 = DIRECTION ( 'NONE',  ( 0.000000000000000000, 0.000000000000000000, 1.000000000000000000 ) ) ;
#59 = CIRCLE ( 'NONE', #51, 12.50000000000000000 ) ;
#60 = APPROVAL_STATUS ( 'not_yet_approved' ) ;
#61 = ADVANCED_FACE ( 'NONE', ( #113 ), #17, .T. ) ;
#62 = SECURITY_CLASSIFICATION_LEVEL ( 'unclassified' ) ;
#63 = VERTEX_POINT ( 'NONE', #139 ) ;
#64 = CALENDAR_DATE ( 2022, 6, 4 ) ;
#65 = APPROVAL_DATE_TIME ( #8, #40 ) ;
#66 = ADVANCED_BREP_SHAPE_REPRESENTATION ( 'Web Model 19837_19867', ( #103, #84 ), #140 ) ;
#67 = CC_DESIGN_PERSON_AND_ORGANIZATION_ASSIGNMENT ( #131, #21, ( #116 ) ) ;
#68 = APPROVAL_STATUS ( 'not_yet_approved' ) ;
#69 = FACE_OUTER_BOUND ( 'NONE', #121, .T. ) ;
#70 = EDGE_CURVE ( 'NONE', #106, #63, #30, .T. ) ;
#71 = DIRECTION ( 'NONE',  ( 1.000000000000000000, 0.000000000000000000, 0.000000000000000000 ) ) ;
#72 = PERSON_AND_ORGANIZATION_ROLE ( 'design_owner' ) ;
#73 = APPLICATION_CONTEXT ( 'configuration controlled 3d designs of mechanical parts and assemblies' ) ;
#74 = CARTESIAN_POINT ( 'NONE',  ( 0.000000000000000000, 0.000000000000000000, 5.000000000000000000 ) ) ;
#75 = EDGE_LOOP ( 'NONE', ( #149, #123 ) ) ;
#76 = PERSON_AND_ORGANIZATION ( #118, #120 ) ;
#77 = DESIGN_CONTEXT ( 'detailed design', #73, 'design' ) ;
#78 = APPROVAL ( #68, 'UNSPECIFIED' ) ;
#79 = DIRECTION ( 'NONE',  ( 0.000000000000000000, 0.000000000000000000, 1.000000000000000000 ) ) ;
#80 = ADVANCED_FACE ( 'NONE', ( #97 ), #125, .T. ) ;
#81 = DIRECTION ( 'NONE',  ( 1.000000000000000000, 0.000000000000000000, 0.000000000000000000 ) ) ;
#82 = CARTESIAN_POINT ( 'NONE',  ( 0.000000000000000000, 0.000000000000000000, 5.000000000000000000 ) ) ;
#83 = SHAPE_DEFINITION_REPRESENTATION ( #46, #66 ) ;
#84 = AXIS2_PLACEMENT_3D ( 'NONE', #137, #6, #33 ) ;
#85 = CC_DESIGN_DATE_AND_TIME_ASSIGNMENT ( #122, #4, ( #47 ) ) ;
#86 = COORDINATED_UNIVERSAL_TIME_OFFSET ( 5, 0, .BEHIND. ) ;
#87 = PERSON_AND_ORGANIZATION ( #118, #120 ) ;
#88 = AXIS2_PLACEMENT_3D ( 'NONE', #107, #38, #92 ) ;
#89 = DIRECTION ( 'NONE',  ( -0.000000000000000000, -0.000000000000000000, -1.000000000000000000 ) ) ;
#90 = EDGE_LOOP ( 'NONE', ( #104, #2 ) ) ;
#91 = CC_DESIGN_PERSON_AND_ORGANIZATION_ASSIGNMENT ( #141, #165, ( #159 ) ) ;
#92 = DIRECTION ( 'NONE',  ( 1.000000000000000000, 0.000000000000000000, -0.000000000000000000 ) ) ;
#93 = VERTEX_POINT ( 'NONE', #110 ) ;
#94 = CARTESIAN_POINT ( 'NONE',  ( 12.50000000000000000, 1.530808498934191521E-15, 5.000000000000000000 ) ) ;
#95 = AXIS2_PLACEMENT_3D ( 'NONE', #74, #58, #3 ) ;
#96 = LOCAL_TIME ( 11, 6, 24.00000000000000000, #86 ) ;
#97 = FACE_OUTER_BOUND ( 'NONE', #90, .T. ) ;
#98 = APPROVAL_DATE_TIME ( #112, #78 ) ;
#99 = CALENDAR_DATE ( 2022, 6, 4 ) ;
#100 = AXIS2_PLACEMENT_3D ( 'NONE', #82, #43, #158 ) ;
#101 = LOCAL_TIME ( 11, 6, 24.00000000000000000, #49 ) ;
#102 = PERSON_AND_ORGANIZATION_ROLE ( 'classification_officer' ) ;
#103 = MANIFOLD_SOLID_BREP ( 'Boss-Extrude1', #162 ) ;
#104 = ORIENTED_EDGE ( 'NONE', *, *, #160, .T. ) ;
#105 = CIRCLE ( 'NONE', #19, 12.50000000000000000 ) ;
#106 = VERTEX_POINT ( 'NONE', #94 ) ;
#107 = CARTESIAN_POINT ( 'NONE',  ( 0.000000000000000000, 0.000000000000000000, 0.000000000000000000 ) ) ;
#108 = COORDINATED_UNIVERSAL_TIME_OFFSET ( 5, 0, .BEHIND. ) ;
#109 = CYLINDRICAL_SURFACE ( 'NONE', #130, 12.50000000000000000 ) ;
#110 = CARTESIAN_POINT ( 'NONE',  ( -12.50000000000000000, 0.000000000000000000, 0.000000000000000000 ) ) ;
#111 = APPLICATION_PROTOCOL_DEFINITION ( 'international standard', 'config_control_design', 1994, #26 ) ;
#112 = DATE_AND_TIME ( #41, #136 ) ;
#113 = FACE_OUTER_BOUND ( 'NONE', #168, .T. ) ;
#114 = APPROVAL_ROLE ( '' ) ;
#115 = PERSON_AND_ORGANIZATION_ROLE ( 'design_supplier' ) ;
#116 = PRODUCT_DEFINITION_FORMATION_WITH_SPECIFIED_SOURCE ( 'ANY', '', #157, .NOT_KNOWN. ) ;
#117 = CC_DESIGN_DATE_AND_TIME_ASSIGNMENT ( #35, #23, ( #159 ) ) ;
#118 = PERSON ( 'UNSPECIFIED', 'UNSPECIFIED', 'UNSPECIFIED', ('UNSPECIFIED'), ('UNSPECIFIED'), ('UNSPECIFIED') ) ;
#119 = ORIENTED_EDGE ( 'NONE', *, *, #147, .T. ) ;
#120 = ORGANIZATION ( 'UNSPECIFIED', 'UNSPECIFIED', '' ) ;
#121 = EDGE_LOOP ( 'NONE', ( #135, #124, #25, #15 ) ) ;
#122 = DATE_AND_TIME ( #44, #144 ) ;
#123 = ORIENTED_EDGE ( 'NONE', *, *, #147, .F. ) ;
#124 = ORIENTED_EDGE ( 'NONE', *, *, #160, .F. ) ;
#125 = PLANE ( 'NONE',  #95 ) ;
#126 =( NAMED_UNIT ( * ) SI_UNIT ( $, .STERADIAN. ) SOLID_ANGLE_UNIT ( ) );
#127 = CARTESIAN_POINT ( 'NONE',  ( 0.000000000000000000, 0.000000000000000000, 5.000000000000000000 ) ) ;
#128 = PRODUCT_RELATED_PRODUCT_CATEGORY ( 'detail', '', ( #157 ) ) ;
#129 = APPLICATION_PROTOCOL_DEFINITION ( 'international standard', 'config_control_design', 1994, #73 ) ;
#130 = AXIS2_PLACEMENT_3D ( 'NONE', #28, #89, #166 ) ;
#131 = PERSON_AND_ORGANIZATION ( #118, #120 ) ;
#132 = COORDINATED_UNIVERSAL_TIME_OFFSET ( 5, 0, .BEHIND. ) ;
#133 = APPROVAL_STATUS ( 'not_yet_approved' ) ;
#134 = AXIS2_PLACEMENT_3D ( 'NONE', #156, #79, #71 ) ;
#135 = ORIENTED_EDGE ( 'NONE', *, *, #70, .F. ) ;
#136 = LOCAL_TIME ( 11, 6, 24.00000000000000000, #37 ) ;
#137 = CARTESIAN_POINT ( 'NONE',  ( 0.000000000000000000, 0.000000000000000000, 0.000000000000000000 ) ) ;
#138 = MECHANICAL_CONTEXT ( 'NONE', #26, 'mechanical' ) ;
#139 = CARTESIAN_POINT ( 'NONE',  ( 12.50000000000000000, 1.530808498934191521E-15, 0.000000000000000000 ) ) ;
#140 =( GEOMETRIC_REPRESENTATION_CONTEXT ( 3 ) GLOBAL_UNCERTAINTY_ASSIGNED_CONTEXT ( ( #27 ) ) GLOBAL_UNIT_ASSIGNED_CONTEXT ( ( #32, #170, #126 ) ) REPRESENTATION_CONTEXT ( 'NONE', 'WORKASPACE' ) );
#141 = PERSON_AND_ORGANIZATION ( #118, #120 ) ;
#142 = EDGE_CURVE ( 'NONE', #93, #63, #146, .T. ) ;
#143 = CALENDAR_DATE ( 2022, 6, 4 ) ;
#144 = LOCAL_TIME ( 11, 6, 24.00000000000000000, #108 ) ;
#145 = DATE_AND_TIME ( #99, #101 ) ;
#146 = CIRCLE ( 'NONE', #14, 12.50000000000000000 ) ;
#147 = EDGE_CURVE ( 'NONE', #63, #93, #174, .T. ) ;
#148 = LINE ( 'NONE', #22, #31 ) ;
#149 = ORIENTED_EDGE ( 'NONE', *, *, #142, .F. ) ;
#150 = CC_DESIGN_APPROVAL ( #40, ( #116 ) ) ;
#151 = CARTESIAN_POINT ( 'NONE',  ( -12.50000000000000000, 0.000000000000000000, 5.000000000000000000 ) ) ;
#152 = CC_DESIGN_PERSON_AND_ORGANIZATION_ASSIGNMENT ( #175, #102, ( #47 ) ) ;
#153 = CARTESIAN_POINT ( 'NONE',  ( 0.000000000000000000, 0.000000000000000000, 5.000000000000000000 ) ) ;
#154 = PERSON_AND_ORGANIZATION ( #118, #120 ) ;
#155 = VECTOR ( 'NONE', #173, 1000.000000000000000 ) ;
#156 = CARTESIAN_POINT ( 'NONE',  ( 0.000000000000000000, 0.000000000000000000, 0.000000000000000000 ) ) ;
#157 = PRODUCT ( 'Web Model 19837_19867', 'Web Model 19837_19867', '', ( #138 ) ) ;
#158 = DIRECTION ( 'NONE',  ( -1.000000000000000000, 0.000000000000000000, 0.000000000000000000 ) ) ;
#159 = PRODUCT_DEFINITION ( 'UNKNOWN', '', #116, #77 ) ;
#160 = EDGE_CURVE ( 'NONE', #53, #106, #59, .T. ) ;
#161 = CC_DESIGN_APPROVAL ( #78, ( #47 ) ) ;
#162 = CLOSED_SHELL ( 'NONE', ( #61, #24, #80, #52 ) ) ;
#163 = APPROVAL_PERSON_ORGANIZATION ( #76, #40, #13 ) ;
#164 = ORIENTED_EDGE ( 'NONE', *, *, #70, .T. ) ;
#165 = PERSON_AND_ORGANIZATION_ROLE ( 'creator' ) ;
#166 = DIRECTION ( 'NONE',  ( -1.000000000000000000, 0.000000000000000000, 0.000000000000000000 ) ) ;
#167 = APPROVAL_ROLE ( '' ) ;
#168 = EDGE_LOOP ( 'NONE', ( #42, #164, #119, #12 ) ) ;
#169 = CC_DESIGN_APPROVAL ( #172, ( #159 ) ) ;
#170 =( NAMED_UNIT ( * ) PLANE_ANGLE_UNIT ( ) SI_UNIT ( $, .RADIAN. ) );
#171 = PERSON_AND_ORGANIZATION ( #118, #120 ) ;
#172 = APPROVAL ( #60, 'UNSPECIFIED' ) ;
#173 = DIRECTION ( 'NONE',  ( -0.000000000000000000, -0.000000000000000000, -1.000000000000000000 ) ) ;
#174 = CIRCLE ( 'NONE', #134, 12.50000000000000000 ) ;
#175 = PERSON_AND_ORGANIZATION ( #118, #120 ) ;
ENDSEC;
END-ISO-10303-21;
