ISO-10303-21;
HEADER;
FILE_DESCRIPTION (( 'STEP AP203' ),
    '1' );
FILE_NAME ('Web Model 65877.STEP',
    '2017-01-31T19:30:13',
    ( '' ),
    ( '' ),
    'SwSTEP 2.0',
    'SolidWorks 2016',
    '' );
FILE_SCHEMA (( 'CONFIG_CONTROL_DESIGN' ));
ENDSEC;

DATA;
#1 = CC_DESIGN_APPROVAL ( #75, ( #110 ) ) ;
#2 = FACE_OUTER_BOUND ( 'NONE', #111, .T. ) ;
#3 = CC_DESIGN_APPROVAL ( #87, ( #173 ) ) ;
#4 = SHAPE_DEFINITION_REPRESENTATION ( #27, #83 ) ;
#5 = AXIS2_PLACEMENT_3D ( 'NONE', #156, #81, #8 ) ;
#6 = CIRCLE ( 'NONE', #14, 20.00000000000000000 ) ;
#7 = CC_DESIGN_APPROVAL ( #39, ( #95 ) ) ;
#8 = DIRECTION ( 'NONE',  ( 1.000000000000000000, 0.0000000000000000000, 0.0000000000000000000 ) ) ;
#9 = DATE_TIME_ROLE ( 'creation_date' ) ;
#10 = ORIENTED_EDGE ( 'NONE', *, *, #60, .T. ) ;
#11 =( NAMED_UNIT ( * ) PLANE_ANGLE_UNIT ( ) SI_UNIT ( $, .RADIAN. ) );
#12 = PERSON_AND_ORGANIZATION ( #29, #134 ) ;
#13 = ORIENTED_EDGE ( 'NONE', *, *, #117, .F. ) ;
#14 = AXIS2_PLACEMENT_3D ( 'NONE', #168, #62, #90 ) ;
#15 = CALENDAR_DATE ( 2017, 31, 1 ) ;
#16 = EDGE_LOOP ( 'NONE', ( #70, #149, #140, #54 ) ) ;
#17 = LOCAL_TIME ( 14, 30, 13.00000000000000000, #52 ) ;
#18 = PERSON_AND_ORGANIZATION ( #29, #134 ) ;
#19 = DIRECTION ( 'NONE',  ( -0.0000000000000000000, -0.0000000000000000000, -1.000000000000000000 ) ) ;
#20 = CARTESIAN_POINT ( 'NONE',  ( 0.0000000000000000000, 0.0000000000000000000, 0.0000000000000000000 ) ) ;
#21 = PERSON_AND_ORGANIZATION ( #29, #134 ) ;
#22 = AXIS2_PLACEMENT_3D ( 'NONE', #118, #145, #174 ) ;
#23 = PERSON_AND_ORGANIZATION_ROLE ( 'classification_officer' ) ;
#24 = CARTESIAN_POINT ( 'NONE',  ( 0.0000000000000000000, 0.0000000000000000000, 0.0000000000000000000 ) ) ;
#25 = APPLICATION_CONTEXT ( 'configuration controlled 3d designs of mechanical parts and assemblies' ) ;
#26 = DATE_AND_TIME ( #84, #32 ) ;
#27 = PRODUCT_DEFINITION_SHAPE ( 'NONE', 'NONE',  #173 ) ;
#28 = CC_DESIGN_DATE_AND_TIME_ASSIGNMENT ( #93, #9, ( #173 ) ) ;
#29 = PERSON ( 'UNSPECIFIED', 'UNSPECIFIED', 'UNSPECIFIED', ('UNSPECIFIED'), ('UNSPECIFIED'), ('UNSPECIFIED') ) ;
#30 = CC_DESIGN_PERSON_AND_ORGANIZATION_ASSIGNMENT ( #53, #164, ( #95 ) ) ;
#31 = CARTESIAN_POINT ( 'NONE',  ( 20.00000000000000000, 2.449293598294706500E-015, 0.0000000000000000000 ) ) ;
#32 = LOCAL_TIME ( 14, 30, 13.00000000000000000, #175 ) ;
#33 = CYLINDRICAL_SURFACE ( 'NONE', #130, 20.00000000000000000 ) ;
#34 = CARTESIAN_POINT ( 'NONE',  ( -20.00000000000000000, 0.0000000000000000000, 0.0000000000000000000 ) ) ;
#35 = ADVANCED_FACE ( 'NONE', ( #102 ), #69, .T. ) ;
#36 = CLOSED_SHELL ( 'NONE', ( #137, #157, #35, #73 ) ) ;
#37 =( GEOMETRIC_REPRESENTATION_CONTEXT ( 3 ) GLOBAL_UNCERTAINTY_ASSIGNED_CONTEXT ( ( #40 ) ) GLOBAL_UNIT_ASSIGNED_CONTEXT ( ( #46, #11, #106 ) ) REPRESENTATION_CONTEXT ( 'NONE', 'WORKASPACE' ) );
#38 = EDGE_LOOP ( 'NONE', ( #109, #65 ) ) ;
#39 = APPROVAL ( #103, 'UNSPECIFIED' ) ;
#40 = UNCERTAINTY_MEASURE_WITH_UNIT (LENGTH_MEASURE( 1.000000000000000100E-005 ), #46, 'distance_accuracy_value', 'NONE');
#41 = APPROVAL_PERSON_ORGANIZATION ( #150, #75, #48 ) ;
#42 = VERTEX_POINT ( 'NONE', #31 ) ;
#43 = DIRECTION ( 'NONE',  ( 0.0000000000000000000, 0.0000000000000000000, 1.000000000000000000 ) ) ;
#44 = ORIENTED_EDGE ( 'NONE', *, *, #165, .F. ) ;
#45 = PLANE ( 'NONE',  #126 ) ;
#46 =( LENGTH_UNIT ( ) NAMED_UNIT ( * ) SI_UNIT ( .MILLI., .METRE. ) );
#47 = COORDINATED_UNIVERSAL_TIME_OFFSET ( 5, 0, .BEHIND. ) ;
#48 = APPROVAL_ROLE ( '' ) ;
#49 = APPROVAL_DATE_TIME ( #80, #87 ) ;
#50 = DIRECTION ( 'NONE',  ( 1.000000000000000000, 0.0000000000000000000, 0.0000000000000000000 ) ) ;
#51 = CALENDAR_DATE ( 2017, 31, 1 ) ;
#52 = COORDINATED_UNIVERSAL_TIME_OFFSET ( 5, 0, .BEHIND. ) ;
#53 = PERSON_AND_ORGANIZATION ( #29, #134 ) ;
#54 = ORIENTED_EDGE ( 'NONE', *, *, #60, .F. ) ;
#55 = CC_DESIGN_PERSON_AND_ORGANIZATION_ASSIGNMENT ( #18, #88, ( #95 ) ) ;
#56 = DIRECTION ( 'NONE',  ( -0.0000000000000000000, -0.0000000000000000000, -1.000000000000000000 ) ) ;
#57 = DIRECTION ( 'NONE',  ( -0.0000000000000000000, -0.0000000000000000000, -1.000000000000000000 ) ) ;
#58 = DIRECTION ( 'NONE',  ( 0.0000000000000000000, 0.0000000000000000000, 1.000000000000000000 ) ) ;
#59 = MECHANICAL_CONTEXT ( 'NONE', #25, 'mechanical' ) ;
#60 = EDGE_CURVE ( 'NONE', #79, #148, #97, .T. ) ;
#61 = DIRECTION ( 'NONE',  ( -0.0000000000000000000, -0.0000000000000000000, -1.000000000000000000 ) ) ;
#62 = DIRECTION ( 'NONE',  ( 0.0000000000000000000, 0.0000000000000000000, 1.000000000000000000 ) ) ;
#63 = COORDINATED_UNIVERSAL_TIME_OFFSET ( 5, 0, .BEHIND. ) ;
#64 = CYLINDRICAL_SURFACE ( 'NONE', #167, 20.00000000000000000 ) ;
#65 = ORIENTED_EDGE ( 'NONE', *, *, #104, .T. ) ;
#66 = CC_DESIGN_PERSON_AND_ORGANIZATION_ASSIGNMENT ( #139, #23, ( #110 ) ) ;
#67 = VERTEX_POINT ( 'NONE', #101 ) ;
#68 = DIRECTION ( 'NONE',  ( 1.000000000000000000, 0.0000000000000000000, 0.0000000000000000000 ) ) ;
#69 = PLANE ( 'NONE',  #138 ) ;
#70 = ORIENTED_EDGE ( 'NONE', *, *, #104, .F. ) ;
#71 = DIRECTION ( 'NONE',  ( 1.000000000000000000, 0.0000000000000000000, -0.0000000000000000000 ) ) ;
#72 = CIRCLE ( 'NONE', #5, 20.00000000000000000 ) ;
#73 = ADVANCED_FACE ( 'NONE', ( #108 ), #45, .F. ) ;
#74 = APPROVAL_ROLE ( '' ) ;
#75 = APPROVAL ( #119, 'UNSPECIFIED' ) ;
#76 = SECURITY_CLASSIFICATION_LEVEL ( 'unclassified' ) ;
#77 = EDGE_LOOP ( 'NONE', ( #44, #13 ) ) ;
#78 = ORIENTED_EDGE ( 'NONE', *, *, #99, .F. ) ;
#79 = VERTEX_POINT ( 'NONE', #170 ) ;
#80 = DATE_AND_TIME ( #159, #17 ) ;
#81 = DIRECTION ( 'NONE',  ( 0.0000000000000000000, 0.0000000000000000000, 1.000000000000000000 ) ) ;
#82 = CARTESIAN_POINT ( 'NONE',  ( 0.0000000000000000000, 0.0000000000000000000, 4.000000000000000000 ) ) ;
#83 = ADVANCED_BREP_SHAPE_REPRESENTATION ( 'Web Model 65877', ( #124, #154 ), #37 ) ;
#84 = CALENDAR_DATE ( 2017, 31, 1 ) ;
#85 = APPROVAL_ROLE ( '' ) ;
#86 = APPROVAL_PERSON_ORGANIZATION ( #166, #87, #85 ) ;
#87 = APPROVAL ( #172, 'UNSPECIFIED' ) ;
#88 = PERSON_AND_ORGANIZATION_ROLE ( 'design_supplier' ) ;
#89 = EDGE_CURVE ( 'NONE', #67, #42, #144, .T. ) ;
#90 = DIRECTION ( 'NONE',  ( 1.000000000000000000, 0.0000000000000000000, 0.0000000000000000000 ) ) ;
#91 = APPROVAL_DATE_TIME ( #26, #39 ) ;
#92 = DATE_TIME_ROLE ( 'classification_date' ) ;
#93 = DATE_AND_TIME ( #147, #127 ) ;
#94 = DATE_AND_TIME ( #51, #125 ) ;
#95 = PRODUCT_DEFINITION_FORMATION_WITH_SPECIFIED_SOURCE ( 'ANY', '', #115, .NOT_KNOWN. ) ;
#96 = DATE_AND_TIME ( #15, #155 ) ;
#97 = LINE ( 'NONE', #132, #116 ) ;
#98 = PRODUCT_RELATED_PRODUCT_CATEGORY ( 'detail', '', ( #115 ) ) ;
#99 = EDGE_CURVE ( 'NONE', #79, #67, #151, .T. ) ;
#100 = DIRECTION ( 'NONE',  ( -1.000000000000000000, 0.0000000000000000000, 0.0000000000000000000 ) ) ;
#101 = CARTESIAN_POINT ( 'NONE',  ( 20.00000000000000000, 2.449293598294706500E-015, 4.000000000000000000 ) ) ;
#102 = FACE_OUTER_BOUND ( 'NONE', #38, .T. ) ;
#103 = APPROVAL_STATUS ( 'not_yet_approved' ) ;
#104 = EDGE_CURVE ( 'NONE', #67, #79, #72, .T. ) ;
#105 = CIRCLE ( 'NONE', #22, 20.00000000000000000 ) ;
#106 =( NAMED_UNIT ( * ) SI_UNIT ( $, .STERADIAN. ) SOLID_ANGLE_UNIT ( ) );
#107 = CC_DESIGN_DATE_AND_TIME_ASSIGNMENT ( #94, #92, ( #110 ) ) ;
#108 = FACE_OUTER_BOUND ( 'NONE', #77, .T. ) ;
#109 = ORIENTED_EDGE ( 'NONE', *, *, #99, .T. ) ;
#110 = SECURITY_CLASSIFICATION ( '', '', #76 ) ;
#111 = EDGE_LOOP ( 'NONE', ( #123, #78, #10, #142 ) ) ;
#112 = CARTESIAN_POINT ( 'NONE',  ( 0.0000000000000000000, 0.0000000000000000000, 4.000000000000000000 ) ) ;
#113 = CC_DESIGN_SECURITY_CLASSIFICATION ( #110, ( #95 ) ) ;
#114 = CARTESIAN_POINT ( 'NONE',  ( 0.0000000000000000000, 0.0000000000000000000, 4.000000000000000000 ) ) ;
#115 = PRODUCT ( 'Web Model 65877', 'Web Model 65877', '', ( #59 ) ) ;
#116 = VECTOR ( 'NONE', #19, 1000.000000000000000 ) ;
#117 = EDGE_CURVE ( 'NONE', #42, #148, #6, .T. ) ;
#118 = CARTESIAN_POINT ( 'NONE',  ( 0.0000000000000000000, 0.0000000000000000000, 0.0000000000000000000 ) ) ;
#119 = APPROVAL_STATUS ( 'not_yet_approved' ) ;
#120 = COORDINATED_UNIVERSAL_TIME_OFFSET ( 5, 0, .BEHIND. ) ;
#121 = APPLICATION_PROTOCOL_DEFINITION ( 'international standard', 'config_control_design', 1994, #161 ) ;
#122 = APPROVAL_DATE_TIME ( #96, #75 ) ;
#123 = ORIENTED_EDGE ( 'NONE', *, *, #89, .F. ) ;
#124 = MANIFOLD_SOLID_BREP ( 'Extrude1', #36 ) ;
#125 = LOCAL_TIME ( 14, 30, 13.00000000000000000, #63 ) ;
#126 = AXIS2_PLACEMENT_3D ( 'NONE', #20, #133, #143 ) ;
#127 = LOCAL_TIME ( 14, 30, 13.00000000000000000, #120 ) ;
#128 = VECTOR ( 'NONE', #57, 1000.000000000000000 ) ;
#129 = DIRECTION ( 'NONE',  ( 0.0000000000000000000, 0.0000000000000000000, 1.000000000000000000 ) ) ;
#130 = AXIS2_PLACEMENT_3D ( 'NONE', #160, #61, #158 ) ;
#131 = CARTESIAN_POINT ( 'NONE',  ( 20.00000000000000000, 2.449293598294706500E-015, 4.000000000000000000 ) ) ;
#132 = CARTESIAN_POINT ( 'NONE',  ( -20.00000000000000000, 0.0000000000000000000, 4.000000000000000000 ) ) ;
#133 = DIRECTION ( 'NONE',  ( 0.0000000000000000000, 0.0000000000000000000, 1.000000000000000000 ) ) ;
#134 = ORGANIZATION ( 'UNSPECIFIED', 'UNSPECIFIED', '' ) ;
#135 = PERSON_AND_ORGANIZATION_ROLE ( 'creator' ) ;
#136 = PERSON_AND_ORGANIZATION_ROLE ( 'design_owner' ) ;
#137 = ADVANCED_FACE ( 'NONE', ( #146 ), #64, .T. ) ;
#138 = AXIS2_PLACEMENT_3D ( 'NONE', #112, #129, #71 ) ;
#139 = PERSON_AND_ORGANIZATION ( #29, #134 ) ;
#140 = ORIENTED_EDGE ( 'NONE', *, *, #117, .T. ) ;
#141 = CC_DESIGN_PERSON_AND_ORGANIZATION_ASSIGNMENT ( #21, #136, ( #115 ) ) ;
#142 = ORIENTED_EDGE ( 'NONE', *, *, #165, .T. ) ;
#143 = DIRECTION ( 'NONE',  ( 1.000000000000000000, 0.0000000000000000000, -0.0000000000000000000 ) ) ;
#144 = LINE ( 'NONE', #131, #128 ) ;
#145 = DIRECTION ( 'NONE',  ( 0.0000000000000000000, 0.0000000000000000000, 1.000000000000000000 ) ) ;
#146 = FACE_OUTER_BOUND ( 'NONE', #16, .T. ) ;
#147 = CALENDAR_DATE ( 2017, 31, 1 ) ;
#148 = VERTEX_POINT ( 'NONE', #34 ) ;
#149 = ORIENTED_EDGE ( 'NONE', *, *, #89, .T. ) ;
#150 = PERSON_AND_ORGANIZATION ( #29, #134 ) ;
#151 = CIRCLE ( 'NONE', #171, 20.00000000000000000 ) ;
#152 = CC_DESIGN_PERSON_AND_ORGANIZATION_ASSIGNMENT ( #153, #135, ( #173 ) ) ;
#153 = PERSON_AND_ORGANIZATION ( #29, #134 ) ;
#154 = AXIS2_PLACEMENT_3D ( 'NONE', #24, #58, #50 ) ;
#155 = LOCAL_TIME ( 14, 30, 13.00000000000000000, #47 ) ;
#156 = CARTESIAN_POINT ( 'NONE',  ( 0.0000000000000000000, 0.0000000000000000000, 4.000000000000000000 ) ) ;
#157 = ADVANCED_FACE ( 'NONE', ( #2 ), #33, .T. ) ;
#158 = DIRECTION ( 'NONE',  ( -1.000000000000000000, 0.0000000000000000000, 0.0000000000000000000 ) ) ;
#159 = CALENDAR_DATE ( 2017, 31, 1 ) ;
#160 = CARTESIAN_POINT ( 'NONE',  ( 0.0000000000000000000, 0.0000000000000000000, 4.000000000000000000 ) ) ;
#161 = APPLICATION_CONTEXT ( 'configuration controlled 3d designs of mechanical parts and assemblies' ) ;
#162 = APPLICATION_PROTOCOL_DEFINITION ( 'international standard', 'config_control_design', 1994, #25 ) ;
#163 = DESIGN_CONTEXT ( 'detailed design', #161, 'design' ) ;
#164 = PERSON_AND_ORGANIZATION_ROLE ( 'creator' ) ;
#165 = EDGE_CURVE ( 'NONE', #148, #42, #105, .T. ) ;
#166 = PERSON_AND_ORGANIZATION ( #29, #134 ) ;
#167 = AXIS2_PLACEMENT_3D ( 'NONE', #114, #56, #100 ) ;
#168 = CARTESIAN_POINT ( 'NONE',  ( 0.0000000000000000000, 0.0000000000000000000, 0.0000000000000000000 ) ) ;
#169 = APPROVAL_PERSON_ORGANIZATION ( #12, #39, #74 ) ;
#170 = CARTESIAN_POINT ( 'NONE',  ( -20.00000000000000000, 0.0000000000000000000, 4.000000000000000000 ) ) ;
#171 = AXIS2_PLACEMENT_3D ( 'NONE', #82, #43, #68 ) ;
#172 = APPROVAL_STATUS ( 'not_yet_approved' ) ;
#173 = PRODUCT_DEFINITION ( 'UNKNOWN', '', #95, #163 ) ;
#174 = DIRECTION ( 'NONE',  ( 1.000000000000000000, 0.0000000000000000000, 0.0000000000000000000 ) ) ;
#175 = COORDINATED_UNIVERSAL_TIME_OFFSET ( 5, 0, .BEHIND. ) ;
ENDSEC;
END-ISO-10303-21;
