ISO-10303-21;
HEADER;
FILE_DESCRIPTION (( 'STEP AP203' ),
    '1' );
FILE_NAME ('Web Model 43368_21023.step',
    '2022-03-16T14:25:27',
    ( '' ),
    ( '' ),
    'SwSTEP 2.0',
    'SolidWorks 2021',
    '' );
FILE_SCHEMA (( 'CONFIG_CONTROL_DESIGN' ));
ENDSEC;

DATA;
#1 = ORIENTED_EDGE ( 'NONE', *, *, #169, .T. ) ;
#2 = CARTESIAN_POINT ( 'NONE',  ( 0.000000000000000000, 0.000000000000000000, 1.000000000000000000 ) ) ;
#3 = DIRECTION ( 'NONE',  ( -0.000000000000000000, -0.000000000000000000, -1.000000000000000000 ) ) ;
#4 = CC_DESIGN_PERSON_AND_ORGANIZATION_ASSIGNMENT ( #52, #42, ( #122 ) ) ;
#5 = CARTESIAN_POINT ( 'NONE',  ( 10.00000000000000000, 1.224646799147353256E-15, 1.000000000000000000 ) ) ;
#6 = CLOSED_SHELL ( 'NONE', ( #64, #141, #93, #32 ) ) ;
#7 = APPLICATION_PROTOCOL_DEFINITION ( 'international standard', 'config_control_design', 1994, #58 ) ;
#8 = CALENDAR_DATE ( 2022, 16, 3 ) ;
#9 = UNCERTAINTY_MEASURE_WITH_UNIT (LENGTH_MEASURE( 1.000000000000000082E-05 ), #149, 'distance_accuracy_value', 'NONE');
#10 = DATE_TIME_ROLE ( 'creation_date' ) ;
#11 = EDGE_CURVE ( 'NONE', #19, #110, #14, .T. ) ;
#12 = PERSON_AND_ORGANIZATION ( #88, #132 ) ;
#13 = PRODUCT ( 'Web Model 43368_21023', 'Web Model 43368_21023', '', ( #86 ) ) ;
#14 = CIRCLE ( 'NONE', #107, 10.00000000000000000 ) ;
#15 = CC_DESIGN_SECURITY_CLASSIFICATION ( #153, ( #122 ) ) ;
#16 = CARTESIAN_POINT ( 'NONE',  ( -10.00000000000000000, 0.000000000000000000, 0.000000000000000000 ) ) ;
#17 = LOCAL_TIME ( 10, 25, 27.00000000000000000, #29 ) ;
#18 = FACE_OUTER_BOUND ( 'NONE', #60, .T. ) ;
#19 = VERTEX_POINT ( 'NONE', #35 ) ;
#20 = AXIS2_PLACEMENT_3D ( 'NONE', #38, #101, #166 ) ;
#21 = LOCAL_TIME ( 10, 25, 27.00000000000000000, #105 ) ;
#22 = COORDINATED_UNIVERSAL_TIME_OFFSET ( 5, 0, .BEHIND. ) ;
#23 = PERSON_AND_ORGANIZATION ( #88, #132 ) ;
#24 = EDGE_CURVE ( 'NONE', #110, #94, #78, .T. ) ;
#25 = CARTESIAN_POINT ( 'NONE',  ( 0.000000000000000000, 0.000000000000000000, 0.000000000000000000 ) ) ;
#26 = CARTESIAN_POINT ( 'NONE',  ( 0.000000000000000000, 0.000000000000000000, 0.000000000000000000 ) ) ;
#27 = CIRCLE ( 'NONE', #20, 10.00000000000000000 ) ;
#28 = PERSON_AND_ORGANIZATION ( #88, #132 ) ;
#29 = COORDINATED_UNIVERSAL_TIME_OFFSET ( 5, 0, .BEHIND. ) ;
#30 = PERSON_AND_ORGANIZATION_ROLE ( 'creator' ) ;
#31 = APPROVAL ( #91, 'UNSPECIFIED' ) ;
#32 = ADVANCED_FACE ( 'NONE', ( #18 ), #109, .F. ) ;
#33 = VERTEX_POINT ( 'NONE', #16 ) ;
#34 = LOCAL_TIME ( 10, 25, 27.00000000000000000, #22 ) ;
#35 = CARTESIAN_POINT ( 'NONE',  ( -10.00000000000000000, 0.000000000000000000, 1.000000000000000000 ) ) ;
#36 = DIRECTION ( 'NONE',  ( 1.000000000000000000, 0.000000000000000000, 0.000000000000000000 ) ) ;
#37 = APPROVAL_DATE_TIME ( #148, #129 ) ;
#38 = CARTESIAN_POINT ( 'NONE',  ( 0.000000000000000000, 0.000000000000000000, 1.000000000000000000 ) ) ;
#39 = APPROVAL_DATE_TIME ( #116, #31 ) ;
#40 = CC_DESIGN_PERSON_AND_ORGANIZATION_ASSIGNMENT ( #12, #30, ( #122 ) ) ;
#41 = VECTOR ( 'NONE', #165, 1000.000000000000000 ) ;
#42 = PERSON_AND_ORGANIZATION_ROLE ( 'design_supplier' ) ;
#43 = CIRCLE ( 'NONE', #66, 10.00000000000000000 ) ;
#44 = ORIENTED_EDGE ( 'NONE', *, *, #11, .T. ) ;
#45 = CARTESIAN_POINT ( 'NONE',  ( 0.000000000000000000, 0.000000000000000000, 1.000000000000000000 ) ) ;
#46 = APPROVAL_ROLE ( '' ) ;
#47 = AXIS2_PLACEMENT_3D ( 'NONE', #25, #51, #72 ) ;
#48 = APPLICATION_CONTEXT ( 'configuration controlled 3d designs of mechanical parts and assemblies' ) ;
#49 = DIRECTION ( 'NONE',  ( 0.000000000000000000, 0.000000000000000000, 1.000000000000000000 ) ) ;
#50 = FACE_OUTER_BOUND ( 'NONE', #61, .T. ) ;
#51 = DIRECTION ( 'NONE',  ( 0.000000000000000000, 0.000000000000000000, 1.000000000000000000 ) ) ;
#52 = PERSON_AND_ORGANIZATION ( #88, #132 ) ;
#53 = EDGE_CURVE ( 'NONE', #19, #33, #174, .T. ) ;
#54 = CIRCLE ( 'NONE', #84, 10.00000000000000000 ) ;
#55 = PERSON_AND_ORGANIZATION ( #88, #132 ) ;
#56 =( GEOMETRIC_REPRESENTATION_CONTEXT ( 3 ) GLOBAL_UNCERTAINTY_ASSIGNED_CONTEXT ( ( #9 ) ) GLOBAL_UNIT_ASSIGNED_CONTEXT ( ( #149, #152, #73 ) ) REPRESENTATION_CONTEXT ( 'NONE', 'WORKASPACE' ) );
#57 = ORIENTED_EDGE ( 'NONE', *, *, #24, .T. ) ;
#58 = APPLICATION_CONTEXT ( 'configuration controlled 3d designs of mechanical parts and assemblies' ) ;
#59 = CC_DESIGN_DATE_AND_TIME_ASSIGNMENT ( #173, #133, ( #153 ) ) ;
#60 = EDGE_LOOP ( 'NONE', ( #69, #146 ) ) ;
#61 = EDGE_LOOP ( 'NONE', ( #44, #162 ) ) ;
#62 = PERSON_AND_ORGANIZATION ( #88, #132 ) ;
#63 = COORDINATED_UNIVERSAL_TIME_OFFSET ( 5, 0, .BEHIND. ) ;
#64 = ADVANCED_FACE ( 'NONE', ( #124 ), #163, .T. ) ;
#65 = COORDINATED_UNIVERSAL_TIME_OFFSET ( 5, 0, .BEHIND. ) ;
#66 = AXIS2_PLACEMENT_3D ( 'NONE', #164, #103, #113 ) ;
#67 = APPROVAL ( #77, 'UNSPECIFIED' ) ;
#68 = PRODUCT_RELATED_PRODUCT_CATEGORY ( 'detail', '', ( #13 ) ) ;
#69 = ORIENTED_EDGE ( 'NONE', *, *, #169, .F. ) ;
#70 = CALENDAR_DATE ( 2022, 16, 3 ) ;
#71 = PERSON_AND_ORGANIZATION ( #88, #132 ) ;
#72 = DIRECTION ( 'NONE',  ( 1.000000000000000000, 0.000000000000000000, 0.000000000000000000 ) ) ;
#73 =( NAMED_UNIT ( * ) SI_UNIT ( $, .STERADIAN. ) SOLID_ANGLE_UNIT ( ) );
#74 = CALENDAR_DATE ( 2022, 16, 3 ) ;
#75 = AXIS2_PLACEMENT_3D ( 'NONE', #111, #3, #150 ) ;
#76 = LOCAL_TIME ( 10, 25, 27.00000000000000000, #65 ) ;
#77 = APPROVAL_STATUS ( 'not_yet_approved' ) ;
#78 = LINE ( 'NONE', #80, #117 ) ;
#79 = DIRECTION ( 'NONE',  ( 0.000000000000000000, 0.000000000000000000, 1.000000000000000000 ) ) ;
#80 = CARTESIAN_POINT ( 'NONE',  ( 10.00000000000000000, 1.224646799147353256E-15, 1.000000000000000000 ) ) ;
#81 = CC_DESIGN_APPROVAL ( #31, ( #153 ) ) ;
#82 = EDGE_LOOP ( 'NONE', ( #96, #57, #134, #147 ) ) ;
#83 = DIRECTION ( 'NONE',  ( 1.000000000000000000, 0.000000000000000000, -0.000000000000000000 ) ) ;
#84 = AXIS2_PLACEMENT_3D ( 'NONE', #26, #97, #36 ) ;
#85 = DIRECTION ( 'NONE',  ( -0.000000000000000000, -0.000000000000000000, -1.000000000000000000 ) ) ;
#86 = MECHANICAL_CONTEXT ( 'NONE', #48, 'mechanical' ) ;
#87 = FACE_OUTER_BOUND ( 'NONE', #108, .T. ) ;
#88 = PERSON ( 'UNSPECIFIED', 'UNSPECIFIED', 'UNSPECIFIED', ('UNSPECIFIED'), ('UNSPECIFIED'), ('UNSPECIFIED') ) ;
#89 = APPLICATION_PROTOCOL_DEFINITION ( 'international standard', 'config_control_design', 1994, #48 ) ;
#90 = APPROVAL_PERSON_ORGANIZATION ( #118, #31, #172 ) ;
#91 = APPROVAL_STATUS ( 'not_yet_approved' ) ;
#92 = DIRECTION ( 'NONE',  ( 0.000000000000000000, 0.000000000000000000, 1.000000000000000000 ) ) ;
#93 = ADVANCED_FACE ( 'NONE', ( #50 ), #102, .T. ) ;
#94 = VERTEX_POINT ( 'NONE', #140 ) ;
#95 = CC_DESIGN_APPROVAL ( #67, ( #122 ) ) ;
#96 = ORIENTED_EDGE ( 'NONE', *, *, #137, .F. ) ;
#97 = DIRECTION ( 'NONE',  ( 0.000000000000000000, 0.000000000000000000, 1.000000000000000000 ) ) ;
#98 = PRODUCT_DEFINITION_SHAPE ( 'NONE', 'NONE',  #151 ) ;
#99 = APPROVAL_PERSON_ORGANIZATION ( #23, #129, #46 ) ;
#100 = CC_DESIGN_PERSON_AND_ORGANIZATION_ASSIGNMENT ( #71, #125, ( #151 ) ) ;
#101 = DIRECTION ( 'NONE',  ( 0.000000000000000000, 0.000000000000000000, 1.000000000000000000 ) ) ;
#102 = PLANE ( 'NONE',  #168 ) ;
#103 = DIRECTION ( 'NONE',  ( 0.000000000000000000, 0.000000000000000000, 1.000000000000000000 ) ) ;
#104 = CC_DESIGN_DATE_AND_TIME_ASSIGNMENT ( #127, #10, ( #151 ) ) ;
#105 = COORDINATED_UNIVERSAL_TIME_OFFSET ( 5, 0, .BEHIND. ) ;
#106 = CALENDAR_DATE ( 2022, 16, 3 ) ;
#107 = AXIS2_PLACEMENT_3D ( 'NONE', #161, #79, #144 ) ;
#108 = EDGE_LOOP ( 'NONE', ( #160, #138, #121, #1 ) ) ;
#109 = PLANE ( 'NONE',  #158 ) ;
#110 = VERTEX_POINT ( 'NONE', #5 ) ;
#111 = CARTESIAN_POINT ( 'NONE',  ( 0.000000000000000000, 0.000000000000000000, 1.000000000000000000 ) ) ;
#112 = DIRECTION ( 'NONE',  ( -1.000000000000000000, 0.000000000000000000, 0.000000000000000000 ) ) ;
#113 = DIRECTION ( 'NONE',  ( 1.000000000000000000, 0.000000000000000000, 0.000000000000000000 ) ) ;
#114 = CARTESIAN_POINT ( 'NONE',  ( -10.00000000000000000, 0.000000000000000000, 1.000000000000000000 ) ) ;
#115 = CYLINDRICAL_SURFACE ( 'NONE', #175, 10.00000000000000000 ) ;
#116 = DATE_AND_TIME ( #106, #17 ) ;
#117 = VECTOR ( 'NONE', #136, 1000.000000000000000 ) ;
#118 = PERSON_AND_ORGANIZATION ( #88, #132 ) ;
#119 = APPROVAL_DATE_TIME ( #131, #67 ) ;
#120 = MANIFOLD_SOLID_BREP ( 'Boss-Extrude1', #6 ) ;
#121 = ORIENTED_EDGE ( 'NONE', *, *, #53, .T. ) ;
#122 = PRODUCT_DEFINITION_FORMATION_WITH_SPECIFIED_SOURCE ( 'ANY', '', #13, .NOT_KNOWN. ) ;
#123 = LOCAL_TIME ( 10, 25, 27.00000000000000000, #63 ) ;
#124 = FACE_OUTER_BOUND ( 'NONE', #82, .T. ) ;
#125 = PERSON_AND_ORGANIZATION_ROLE ( 'creator' ) ;
#126 = PERSON_AND_ORGANIZATION_ROLE ( 'design_owner' ) ;
#127 = DATE_AND_TIME ( #74, #123 ) ;
#128 = APPROVAL_ROLE ( '' ) ;
#129 = APPROVAL ( #139, 'UNSPECIFIED' ) ;
#130 = SHAPE_DEFINITION_REPRESENTATION ( #98, #135 ) ;
#131 = DATE_AND_TIME ( #142, #21 ) ;
#132 = ORGANIZATION ( 'UNSPECIFIED', 'UNSPECIFIED', '' ) ;
#133 = DATE_TIME_ROLE ( 'classification_date' ) ;
#134 = ORIENTED_EDGE ( 'NONE', *, *, #154, .T. ) ;
#135 = ADVANCED_BREP_SHAPE_REPRESENTATION ( 'Web Model 43368_21023', ( #120, #47 ), #56 ) ;
#136 = DIRECTION ( 'NONE',  ( -0.000000000000000000, -0.000000000000000000, -1.000000000000000000 ) ) ;
#137 = EDGE_CURVE ( 'NONE', #110, #19, #27, .T. ) ;
#138 = ORIENTED_EDGE ( 'NONE', *, *, #11, .F. ) ;
#139 = APPROVAL_STATUS ( 'not_yet_approved' ) ;
#140 = CARTESIAN_POINT ( 'NONE',  ( 10.00000000000000000, 1.224646799147353256E-15, 0.000000000000000000 ) ) ;
#141 = ADVANCED_FACE ( 'NONE', ( #87 ), #115, .T. ) ;
#142 = CALENDAR_DATE ( 2022, 16, 3 ) ;
#143 = DIRECTION ( 'NONE',  ( 1.000000000000000000, 0.000000000000000000, -0.000000000000000000 ) ) ;
#144 = DIRECTION ( 'NONE',  ( 1.000000000000000000, 0.000000000000000000, 0.000000000000000000 ) ) ;
#145 = CC_DESIGN_PERSON_AND_ORGANIZATION_ASSIGNMENT ( #55, #171, ( #153 ) ) ;
#146 = ORIENTED_EDGE ( 'NONE', *, *, #154, .F. ) ;
#147 = ORIENTED_EDGE ( 'NONE', *, *, #53, .F. ) ;
#148 = DATE_AND_TIME ( #70, #34 ) ;
#149 =( LENGTH_UNIT ( ) NAMED_UNIT ( * ) SI_UNIT ( .MILLI., .METRE. ) );
#150 = DIRECTION ( 'NONE',  ( -1.000000000000000000, 0.000000000000000000, 0.000000000000000000 ) ) ;
#151 = PRODUCT_DEFINITION ( 'UNKNOWN', '', #122, #156 ) ;
#152 =( NAMED_UNIT ( * ) PLANE_ANGLE_UNIT ( ) SI_UNIT ( $, .RADIAN. ) );
#153 = SECURITY_CLASSIFICATION ( '', '', #167 ) ;
#154 = EDGE_CURVE ( 'NONE', #94, #33, #54, .T. ) ;
#155 = CC_DESIGN_APPROVAL ( #129, ( #151 ) ) ;
#156 = DESIGN_CONTEXT ( 'detailed design', #58, 'design' ) ;
#157 = CARTESIAN_POINT ( 'NONE',  ( 0.000000000000000000, 0.000000000000000000, 0.000000000000000000 ) ) ;
#158 = AXIS2_PLACEMENT_3D ( 'NONE', #157, #92, #143 ) ;
#159 = CC_DESIGN_PERSON_AND_ORGANIZATION_ASSIGNMENT ( #28, #126, ( #13 ) ) ;
#160 = ORIENTED_EDGE ( 'NONE', *, *, #24, .F. ) ;
#161 = CARTESIAN_POINT ( 'NONE',  ( 0.000000000000000000, 0.000000000000000000, 1.000000000000000000 ) ) ;
#162 = ORIENTED_EDGE ( 'NONE', *, *, #137, .T. ) ;
#163 = CYLINDRICAL_SURFACE ( 'NONE', #75, 10.00000000000000000 ) ;
#164 = CARTESIAN_POINT ( 'NONE',  ( 0.000000000000000000, 0.000000000000000000, 0.000000000000000000 ) ) ;
#165 = DIRECTION ( 'NONE',  ( -0.000000000000000000, -0.000000000000000000, -1.000000000000000000 ) ) ;
#166 = DIRECTION ( 'NONE',  ( 1.000000000000000000, 0.000000000000000000, 0.000000000000000000 ) ) ;
#167 = SECURITY_CLASSIFICATION_LEVEL ( 'unclassified' ) ;
#168 = AXIS2_PLACEMENT_3D ( 'NONE', #2, #49, #83 ) ;
#169 = EDGE_CURVE ( 'NONE', #33, #94, #43, .T. ) ;
#170 = APPROVAL_PERSON_ORGANIZATION ( #62, #67, #128 ) ;
#171 = PERSON_AND_ORGANIZATION_ROLE ( 'classification_officer' ) ;
#172 = APPROVAL_ROLE ( '' ) ;
#173 = DATE_AND_TIME ( #8, #76 ) ;
#174 = LINE ( 'NONE', #114, #41 ) ;
#175 = AXIS2_PLACEMENT_3D ( 'NONE', #45, #85, #112 ) ;
ENDSEC;
END-ISO-10303-21;
