ISO-10303-21;
HEADER;
FILE_DESCRIPTION (( 'STEP AP203' ),
    '1' );
FILE_NAME ('Web Model 19724_19725.step',
    '2021-11-02T19:07:11',
    ( '' ),
    ( '' ),
    'SwSTEP 2.0',
    'SolidWorks 2018',
    '' );
FILE_SCHEMA (( 'CONFIG_CONTROL_DESIGN' ));
ENDSEC;

DATA;
#1 = CLOSED_SHELL ( 'NONE', ( #138, #88, #100, #45 ) ) ;
#2 = PERSON_AND_ORGANIZATION ( #14, #58 ) ;
#3 = AXIS2_PLACEMENT_3D ( 'NONE', #115, #168, #31 ) ;
#4 = VERTEX_POINT ( 'NONE', #61 ) ;
#5 = CC_DESIGN_DATE_AND_TIME_ASSIGNMENT ( #37, #146, ( #48 ) ) ;
#6 = ORIENTED_EDGE ( 'NONE', *, *, #74, .T. ) ;
#7 = LOCAL_TIME ( 15, 7, 11.00000000000000000, #11 ) ;
#8 = DIRECTION ( 'NONE',  ( -0.000000000000000000, -0.000000000000000000, -1.000000000000000000 ) ) ;
#9 = APPROVAL_PERSON_ORGANIZATION ( #97, #86, #70 ) ;
#10 = VECTOR ( 'NONE', #140, 1000.000000000000000 ) ;
#11 = COORDINATED_UNIVERSAL_TIME_OFFSET ( 5, 0, .BEHIND. ) ;
#12 = PERSON_AND_ORGANIZATION ( #14, #58 ) ;
#13 = PRODUCT_DEFINITION_SHAPE ( 'NONE', 'NONE',  #48 ) ;
#14 = PERSON ( 'UNSPECIFIED', 'UNSPECIFIED', 'UNSPECIFIED', ('UNSPECIFIED'), ('UNSPECIFIED'), ('UNSPECIFIED') ) ;
#15 = DIRECTION ( 'NONE',  ( 1.000000000000000000, 0.000000000000000000, -0.000000000000000000 ) ) ;
#16 = DIRECTION ( 'NONE',  ( 0.000000000000000000, 0.000000000000000000, 1.000000000000000000 ) ) ;
#17 =( NAMED_UNIT ( * ) SI_UNIT ( $, .STERADIAN. ) SOLID_ANGLE_UNIT ( ) );
#18 = CARTESIAN_POINT ( 'NONE',  ( -5.000000000000000000, 0.000000000000000000, 1.000000000000000000 ) ) ;
#19 = CIRCLE ( 'NONE', #131, 5.000000000000000000 ) ;
#20 = CC_DESIGN_PERSON_AND_ORGANIZATION_ASSIGNMENT ( #75, #23, ( #113 ) ) ;
#21 = PERSON_AND_ORGANIZATION_ROLE ( 'classification_officer' ) ;
#22 = PERSON_AND_ORGANIZATION_ROLE ( 'creator' ) ;
#23 = PERSON_AND_ORGANIZATION_ROLE ( 'design_supplier' ) ;
#24 = CC_DESIGN_PERSON_AND_ORGANIZATION_ASSIGNMENT ( #112, #65, ( #151 ) ) ;
#25 = LINE ( 'NONE', #18, #126 ) ;
#26 = CARTESIAN_POINT ( 'NONE',  ( 0.000000000000000000, 0.000000000000000000, 1.000000000000000000 ) ) ;
#27 = ORIENTED_EDGE ( 'NONE', *, *, #39, .F. ) ;
#28 = DIRECTION ( 'NONE',  ( 0.000000000000000000, 0.000000000000000000, 1.000000000000000000 ) ) ;
#29 = UNCERTAINTY_MEASURE_WITH_UNIT (LENGTH_MEASURE( 1.000000000000000082E-05 ), #51, 'distance_accuracy_value', 'NONE');
#30 = CARTESIAN_POINT ( 'NONE',  ( 5.000000000000000000, 6.123233995736766282E-16, 1.000000000000000000 ) ) ;
#31 = DIRECTION ( 'NONE',  ( -1.000000000000000000, 0.000000000000000000, 0.000000000000000000 ) ) ;
#32 = APPLICATION_CONTEXT ( 'configuration controlled 3d designs of mechanical parts and assemblies' ) ;
#33 = DIRECTION ( 'NONE',  ( 0.000000000000000000, 0.000000000000000000, 1.000000000000000000 ) ) ;
#34 = VERTEX_POINT ( 'NONE', #43 ) ;
#35 = LOCAL_TIME ( 15, 7, 11.00000000000000000, #150 ) ;
#36 = AXIS2_PLACEMENT_3D ( 'NONE', #101, #16, #46 ) ;
#37 = DATE_AND_TIME ( #109, #7 ) ;
#38 = COORDINATED_UNIVERSAL_TIME_OFFSET ( 5, 0, .BEHIND. ) ;
#39 = EDGE_CURVE ( 'NONE', #34, #130, #57, .T. ) ;
#40 = CARTESIAN_POINT ( 'NONE',  ( -5.000000000000000000, 0.000000000000000000, 0.000000000000000000 ) ) ;
#41 = APPROVAL ( #95, 'UNSPECIFIED' ) ;
#42 = EDGE_LOOP ( 'NONE', ( #106, #6 ) ) ;
#43 = CARTESIAN_POINT ( 'NONE',  ( -5.000000000000000000, 0.000000000000000000, 1.000000000000000000 ) ) ;
#44 = APPROVAL_DATE_TIME ( #85, #41 ) ;
#45 = ADVANCED_FACE ( 'NONE', ( #94 ), #162, .F. ) ;
#46 = DIRECTION ( 'NONE',  ( 1.000000000000000000, 0.000000000000000000, -0.000000000000000000 ) ) ;
#47 = ORIENTED_EDGE ( 'NONE', *, *, #108, .T. ) ;
#48 = PRODUCT_DEFINITION ( 'UNKNOWN', '', #113, #68 ) ;
#49 = DIRECTION ( 'NONE',  ( 0.000000000000000000, 0.000000000000000000, 1.000000000000000000 ) ) ;
#50 = AXIS2_PLACEMENT_3D ( 'NONE', #172, #67, #54 ) ;
#51 =( LENGTH_UNIT ( ) NAMED_UNIT ( * ) SI_UNIT ( .MILLI., .METRE. ) );
#52 = AXIS2_PLACEMENT_3D ( 'NONE', #64, #63, #78 ) ;
#53 = APPROVAL_PERSON_ORGANIZATION ( #102, #41, #107 ) ;
#54 = DIRECTION ( 'NONE',  ( 1.000000000000000000, 0.000000000000000000, 0.000000000000000000 ) ) ;
#55 = AXIS2_PLACEMENT_3D ( 'NONE', #26, #129, #81 ) ;
#56 = EDGE_CURVE ( 'NONE', #4, #80, #169, .T. ) ;
#57 = CIRCLE ( 'NONE', #171, 5.000000000000000000 ) ;
#58 = ORGANIZATION ( 'UNSPECIFIED', 'UNSPECIFIED', '' ) ;
#59 = CC_DESIGN_APPROVAL ( #96, ( #113 ) ) ;
#60 = AXIS2_PLACEMENT_3D ( 'NONE', #111, #49, #15 ) ;
#61 = CARTESIAN_POINT ( 'NONE',  ( 5.000000000000000000, 6.123233995736766282E-16, 0.000000000000000000 ) ) ;
#62 = CARTESIAN_POINT ( 'NONE',  ( 0.000000000000000000, 0.000000000000000000, 1.000000000000000000 ) ) ;
#63 = DIRECTION ( 'NONE',  ( 0.000000000000000000, 0.000000000000000000, 1.000000000000000000 ) ) ;
#64 = CARTESIAN_POINT ( 'NONE',  ( 0.000000000000000000, 0.000000000000000000, 0.000000000000000000 ) ) ;
#65 = PERSON_AND_ORGANIZATION_ROLE ( 'design_owner' ) ;
#66 = COORDINATED_UNIVERSAL_TIME_OFFSET ( 5, 0, .BEHIND. ) ;
#67 = DIRECTION ( 'NONE',  ( 0.000000000000000000, 0.000000000000000000, 1.000000000000000000 ) ) ;
#68 = DESIGN_CONTEXT ( 'detailed design', #133, 'design' ) ;
#69 = ADVANCED_BREP_SHAPE_REPRESENTATION ( 'Web Model 19724_19725', ( #137, #50 ), #90 ) ;
#70 = APPROVAL_ROLE ( '' ) ;
#71 = CYLINDRICAL_SURFACE ( 'NONE', #3, 5.000000000000000000 ) ;
#72 = APPLICATION_PROTOCOL_DEFINITION ( 'international standard', 'config_control_design', 1994, #133 ) ;
#73 = CC_DESIGN_PERSON_AND_ORGANIZATION_ASSIGNMENT ( #12, #135, ( #113 ) ) ;
#74 = EDGE_CURVE ( 'NONE', #130, #34, #19, .T. ) ;
#75 = PERSON_AND_ORGANIZATION ( #14, #58 ) ;
#76 = CALENDAR_DATE ( 2021, 2, 11 ) ;
#77 = DATE_AND_TIME ( #174, #155 ) ;
#78 = DIRECTION ( 'NONE',  ( 1.000000000000000000, 0.000000000000000000, 0.000000000000000000 ) ) ;
#79 = CC_DESIGN_PERSON_AND_ORGANIZATION_ASSIGNMENT ( #154, #22, ( #48 ) ) ;
#80 = VERTEX_POINT ( 'NONE', #40 ) ;
#81 = DIRECTION ( 'NONE',  ( -1.000000000000000000, 0.000000000000000000, 0.000000000000000000 ) ) ;
#82 = CC_DESIGN_DATE_AND_TIME_ASSIGNMENT ( #77, #123, ( #148 ) ) ;
#83 = PLANE ( 'NONE',  #36 ) ;
#84 =( NAMED_UNIT ( * ) PLANE_ANGLE_UNIT ( ) SI_UNIT ( $, .RADIAN. ) );
#85 = DATE_AND_TIME ( #76, #114 ) ;
#86 = APPROVAL ( #118, 'UNSPECIFIED' ) ;
#87 = APPROVAL_PERSON_ORGANIZATION ( #2, #96, #122 ) ;
#88 = ADVANCED_FACE ( 'NONE', ( #116 ), #120, .T. ) ;
#89 = DATE_AND_TIME ( #145, #35 ) ;
#90 =( GEOMETRIC_REPRESENTATION_CONTEXT ( 3 ) GLOBAL_UNCERTAINTY_ASSIGNED_CONTEXT ( ( #29 ) ) GLOBAL_UNIT_ASSIGNED_CONTEXT ( ( #51, #84, #17 ) ) REPRESENTATION_CONTEXT ( 'NONE', 'WORKASPACE' ) );
#91 = DIRECTION ( 'NONE',  ( 1.000000000000000000, 0.000000000000000000, 0.000000000000000000 ) ) ;
#92 = EDGE_LOOP ( 'NONE', ( #144, #152 ) ) ;
#93 = DIRECTION ( 'NONE',  ( 1.000000000000000000, 0.000000000000000000, 0.000000000000000000 ) ) ;
#94 = FACE_OUTER_BOUND ( 'NONE', #92, .T. ) ;
#95 = APPROVAL_STATUS ( 'not_yet_approved' ) ;
#96 = APPROVAL ( #173, 'UNSPECIFIED' ) ;
#97 = PERSON_AND_ORGANIZATION ( #14, #58 ) ;
#98 = CC_DESIGN_APPROVAL ( #41, ( #48 ) ) ;
#99 = LINE ( 'NONE', #30, #10 ) ;
#100 = ADVANCED_FACE ( 'NONE', ( #136 ), #83, .T. ) ;
#101 = CARTESIAN_POINT ( 'NONE',  ( 0.000000000000000000, 0.000000000000000000, 1.000000000000000000 ) ) ;
#102 = PERSON_AND_ORGANIZATION ( #14, #58 ) ;
#103 = CARTESIAN_POINT ( 'NONE',  ( 5.000000000000000000, 6.123233995736766282E-16, 1.000000000000000000 ) ) ;
#104 = CARTESIAN_POINT ( 'NONE',  ( 0.000000000000000000, 0.000000000000000000, 0.000000000000000000 ) ) ;
#105 = SECURITY_CLASSIFICATION_LEVEL ( 'unclassified' ) ;
#106 = ORIENTED_EDGE ( 'NONE', *, *, #39, .T. ) ;
#107 = APPROVAL_ROLE ( '' ) ;
#108 = EDGE_CURVE ( 'NONE', #130, #4, #99, .T. ) ;
#109 = CALENDAR_DATE ( 2021, 2, 11 ) ;
#110 = LOCAL_TIME ( 15, 7, 11.00000000000000000, #38 ) ;
#111 = CARTESIAN_POINT ( 'NONE',  ( 0.000000000000000000, 0.000000000000000000, 0.000000000000000000 ) ) ;
#112 = PERSON_AND_ORGANIZATION ( #14, #58 ) ;
#113 = PRODUCT_DEFINITION_FORMATION_WITH_SPECIFIED_SOURCE ( 'ANY', '', #151, .NOT_KNOWN. ) ;
#114 = LOCAL_TIME ( 15, 7, 11.00000000000000000, #117 ) ;
#115 = CARTESIAN_POINT ( 'NONE',  ( 0.000000000000000000, 0.000000000000000000, 1.000000000000000000 ) ) ;
#116 = FACE_OUTER_BOUND ( 'NONE', #153, .T. ) ;
#117 = COORDINATED_UNIVERSAL_TIME_OFFSET ( 5, 0, .BEHIND. ) ;
#118 = APPROVAL_STATUS ( 'not_yet_approved' ) ;
#119 = ORIENTED_EDGE ( 'NONE', *, *, #108, .F. ) ;
#120 = CYLINDRICAL_SURFACE ( 'NONE', #55, 5.000000000000000000 ) ;
#121 = APPROVAL_DATE_TIME ( #139, #86 ) ;
#122 = APPROVAL_ROLE ( '' ) ;
#123 = DATE_TIME_ROLE ( 'classification_date' ) ;
#124 = CC_DESIGN_PERSON_AND_ORGANIZATION_ASSIGNMENT ( #170, #21, ( #148 ) ) ;
#125 = ORIENTED_EDGE ( 'NONE', *, *, #160, .T. ) ;
#126 = VECTOR ( 'NONE', #8, 1000.000000000000000 ) ;
#127 = CC_DESIGN_APPROVAL ( #86, ( #148 ) ) ;
#128 = CARTESIAN_POINT ( 'NONE',  ( 0.000000000000000000, 0.000000000000000000, 1.000000000000000000 ) ) ;
#129 = DIRECTION ( 'NONE',  ( -0.000000000000000000, -0.000000000000000000, -1.000000000000000000 ) ) ;
#130 = VERTEX_POINT ( 'NONE', #103 ) ;
#131 = AXIS2_PLACEMENT_3D ( 'NONE', #128, #158, #165 ) ;
#132 = CIRCLE ( 'NONE', #167, 5.000000000000000000 ) ;
#133 = APPLICATION_CONTEXT ( 'configuration controlled 3d designs of mechanical parts and assemblies' ) ;
#134 = EDGE_LOOP ( 'NONE', ( #156, #47, #141, #166 ) ) ;
#135 = PERSON_AND_ORGANIZATION_ROLE ( 'creator' ) ;
#136 = FACE_OUTER_BOUND ( 'NONE', #42, .T. ) ;
#137 = MANIFOLD_SOLID_BREP ( 'Boss-Extrude1', #1 ) ;
#138 = ADVANCED_FACE ( 'NONE', ( #161 ), #71, .T. ) ;
#139 = DATE_AND_TIME ( #175, #110 ) ;
#140 = DIRECTION ( 'NONE',  ( -0.000000000000000000, -0.000000000000000000, -1.000000000000000000 ) ) ;
#141 = ORIENTED_EDGE ( 'NONE', *, *, #56, .T. ) ;
#142 = APPLICATION_PROTOCOL_DEFINITION ( 'international standard', 'config_control_design', 1994, #32 ) ;
#143 = MECHANICAL_CONTEXT ( 'NONE', #32, 'mechanical' ) ;
#144 = ORIENTED_EDGE ( 'NONE', *, *, #160, .F. ) ;
#145 = CALENDAR_DATE ( 2021, 2, 11 ) ;
#146 = DATE_TIME_ROLE ( 'creation_date' ) ;
#147 = APPROVAL_DATE_TIME ( #89, #96 ) ;
#148 = SECURITY_CLASSIFICATION ( '', '', #105 ) ;
#149 = ORIENTED_EDGE ( 'NONE', *, *, #164, .T. ) ;
#150 = COORDINATED_UNIVERSAL_TIME_OFFSET ( 5, 0, .BEHIND. ) ;
#151 = PRODUCT ( 'Web Model 19724_19725', 'Web Model 19724_19725', '', ( #143 ) ) ;
#152 = ORIENTED_EDGE ( 'NONE', *, *, #56, .F. ) ;
#153 = EDGE_LOOP ( 'NONE', ( #119, #27, #149, #125 ) ) ;
#154 = PERSON_AND_ORGANIZATION ( #14, #58 ) ;
#155 = LOCAL_TIME ( 15, 7, 11.00000000000000000, #66 ) ;
#156 = ORIENTED_EDGE ( 'NONE', *, *, #74, .F. ) ;
#157 = SHAPE_DEFINITION_REPRESENTATION ( #13, #69 ) ;
#158 = DIRECTION ( 'NONE',  ( 0.000000000000000000, 0.000000000000000000, 1.000000000000000000 ) ) ;
#159 = CC_DESIGN_SECURITY_CLASSIFICATION ( #148, ( #113 ) ) ;
#160 = EDGE_CURVE ( 'NONE', #80, #4, #132, .T. ) ;
#161 = FACE_OUTER_BOUND ( 'NONE', #134, .T. ) ;
#162 = PLANE ( 'NONE',  #60 ) ;
#163 = PRODUCT_RELATED_PRODUCT_CATEGORY ( 'detail', '', ( #151 ) ) ;
#164 = EDGE_CURVE ( 'NONE', #34, #80, #25, .T. ) ;
#165 = DIRECTION ( 'NONE',  ( 1.000000000000000000, 0.000000000000000000, 0.000000000000000000 ) ) ;
#166 = ORIENTED_EDGE ( 'NONE', *, *, #164, .F. ) ;
#167 = AXIS2_PLACEMENT_3D ( 'NONE', #104, #33, #93 ) ;
#168 = DIRECTION ( 'NONE',  ( -0.000000000000000000, -0.000000000000000000, -1.000000000000000000 ) ) ;
#169 = CIRCLE ( 'NONE', #52, 5.000000000000000000 ) ;
#170 = PERSON_AND_ORGANIZATION ( #14, #58 ) ;
#171 = AXIS2_PLACEMENT_3D ( 'NONE', #62, #28, #91 ) ;
#172 = CARTESIAN_POINT ( 'NONE',  ( 0.000000000000000000, 0.000000000000000000, 0.000000000000000000 ) ) ;
#173 = APPROVAL_STATUS ( 'not_yet_approved' ) ;
#174 = CALENDAR_DATE ( 2021, 2, 11 ) ;
#175 = CALENDAR_DATE ( 2021, 2, 11 ) ;
ENDSEC;
END-ISO-10303-21;
