ISO-10303-21;
HEADER;
FILE_DESCRIPTION (( 'STEP AP203' ),
    '1' );
FILE_NAME ('36936_36936.step',
    '2017-08-23T20:39:28',
    ( '' ),
    ( '' ),
    'SwSTEP 2.0',
    'SolidWorks 2016',
    '' );
FILE_SCHEMA (( 'CONFIG_CONTROL_DESIGN' ));
ENDSEC;

DATA;
#1 = VERTEX_POINT ( 'NONE', #114 ) ;
#2 = ORIENTED_EDGE ( 'NONE', *, *, #147, .T. ) ;
#3 = PERSON_AND_ORGANIZATION_ROLE ( 'creator' ) ;
#4 = UNCERTAINTY_MEASURE_WITH_UNIT (LENGTH_MEASURE( 1.000000000000000100E-005 ), #123, 'distance_accuracy_value', 'NONE');
#5 = APPLICATION_CONTEXT ( 'configuration controlled 3d designs of mechanical parts and assemblies' ) ;
#7 = ADVANCED_FACE ( 'NONE', ( #81 ), #132, .T. ) ;
#6 = APPROVAL_STATUS ( 'not_yet_approved' ) ;
#8 = LINE ( 'NONE', #27, #133 ) ;
#9 = AXIS2_PLACEMENT_3D ( 'NONE', #16, #51, #40 ) ;
#10 = DESIGN_CONTEXT ( 'detailed design', #5, 'design' ) ;
#11 = COORDINATED_UNIVERSAL_TIME_OFFSET ( 5, 0, .BEHIND. ) ;
#12 = AXIS2_PLACEMENT_3D ( 'NONE', #45, #87, #140 ) ;
#13 = DIRECTION ( 'NONE',  ( 0.0000000000000000000, 0.0000000000000000000, 1.000000000000000000 ) ) ;
#14 = EDGE_LOOP ( 'NONE', ( #145, #138, #127, #65 ) ) ;
#15 = AXIS2_PLACEMENT_3D ( 'NONE', #39, #13, #25 ) ;
#16 = CARTESIAN_POINT ( 'NONE',  ( 0.0000000000000000000, 0.0000000000000000000, -2.500000000000000000 ) ) ;
#17 = VERTEX_POINT ( 'NONE', #117 ) ;
#18 = CC_DESIGN_PERSON_AND_ORGANIZATION_ASSIGNMENT ( #66, #56, ( #139 ) ) ;
#19 = APPROVAL ( #59, 'UNSPECIFIED' ) ;
#20 = PERSON_AND_ORGANIZATION ( #146, #122 ) ;
#21 = COORDINATED_UNIVERSAL_TIME_OFFSET ( 5, 0, .BEHIND. ) ;
#22 = PRODUCT ( '36936_36936', '36936_36936', '', ( #109 ) ) ;
#23 = COORDINATED_UNIVERSAL_TIME_OFFSET ( 5, 0, .BEHIND. ) ;
#24 = CC_DESIGN_APPROVAL ( #29, ( #139 ) ) ;
#25 = DIRECTION ( 'NONE',  ( 1.000000000000000000, 0.0000000000000000000, 0.0000000000000000000 ) ) ;
#26 = LOCAL_TIME ( 16, 39, 28.00000000000000000, #89 ) ;
#27 = CARTESIAN_POINT ( 'NONE',  ( 37.49999999999999300, 4.592425496802573600E-015, 2.500000000000000000 ) ) ;
#28 = DIRECTION ( 'NONE',  ( 1.000000000000000000, 0.0000000000000000000, 0.0000000000000000000 ) ) ;
#29 = APPROVAL ( #6, 'UNSPECIFIED' ) ;
#30 = APPROVAL_ROLE ( '' ) ;
#31 = APPROVAL ( #141, 'UNSPECIFIED' ) ;
#32 = ORIENTED_EDGE ( 'NONE', *, *, #125, .T. ) ;
#33 = PERSON_AND_ORGANIZATION ( #146, #122 ) ;
#34 = DIRECTION ( 'NONE',  ( 1.000000000000000000, 0.0000000000000000000, 0.0000000000000000000 ) ) ;
#35 = DIRECTION ( 'NONE',  ( 1.000000000000000000, 0.0000000000000000000, -0.0000000000000000000 ) ) ;
#36 = PERSON_AND_ORGANIZATION ( #146, #122 ) ;
#37 = MANIFOLD_SOLID_BREP ( 'Boss-Extrude1', #77 ) ;
#38 = LOCAL_TIME ( 16, 39, 28.00000000000000000, #21 ) ;
#39 = CARTESIAN_POINT ( 'NONE',  ( 0.0000000000000000000, 0.0000000000000000000, -2.500000000000000000 ) ) ;
#40 = DIRECTION ( 'NONE',  ( 1.000000000000000000, 0.0000000000000000000, -0.0000000000000000000 ) ) ;
#41 = VERTEX_POINT ( 'NONE', #162 ) ;
#42 = APPROVAL_PERSON_ORGANIZATION ( #33, #19, #98 ) ;
#43 = PRODUCT_RELATED_PRODUCT_CATEGORY ( 'detail', '', ( #22 ) ) ;
#44 = DATE_AND_TIME ( #99, #73 ) ;
#45 = CARTESIAN_POINT ( 'NONE',  ( 0.0000000000000000000, 0.0000000000000000000, 0.0000000000000000000 ) ) ;
#46 = APPROVAL_ROLE ( '' ) ;
#47 = APPLICATION_PROTOCOL_DEFINITION ( 'international standard', 'config_control_design', 1994, #5 ) ;
#48 = ORIENTED_EDGE ( 'NONE', *, *, #118, .F. ) ;
#49 = DATE_AND_TIME ( #129, #26 ) ;
#50 = AXIS2_PLACEMENT_3D ( 'NONE', #52, #64, #92 ) ;
#51 = DIRECTION ( 'NONE',  ( 0.0000000000000000000, 0.0000000000000000000, 1.000000000000000000 ) ) ;
#52 = CARTESIAN_POINT ( 'NONE',  ( 0.0000000000000000000, 0.0000000000000000000, 2.500000000000000000 ) ) ;
#53 = ORIENTED_EDGE ( 'NONE', *, *, #168, .F. ) ;
#54 = EDGE_CURVE ( 'NONE', #1, #69, #159, .T. ) ;
#55 = LOCAL_TIME ( 16, 39, 28.00000000000000000, #23 ) ;
#56 = PERSON_AND_ORGANIZATION_ROLE ( 'classification_officer' ) ;
#57 = CC_DESIGN_PERSON_AND_ORGANIZATION_ASSIGNMENT ( #20, #3, ( #97 ) ) ;
#58 = PERSON_AND_ORGANIZATION_ROLE ( 'creator' ) ;
#59 = APPROVAL_STATUS ( 'not_yet_approved' ) ;
#60 = LINE ( 'NONE', #63, #96 ) ;
#61 = CALENDAR_DATE ( 2017, 23, 8 ) ;
#62 = CIRCLE ( 'NONE', #130, 37.49999999999999300 ) ;
#63 = CARTESIAN_POINT ( 'NONE',  ( -37.49999999999999300, 0.0000000000000000000, 2.500000000000000000 ) ) ;
#64 = DIRECTION ( 'NONE',  ( -0.0000000000000000000, -0.0000000000000000000, -1.000000000000000000 ) ) ;
#65 = ORIENTED_EDGE ( 'NONE', *, *, #91, .F. ) ;
#66 = PERSON_AND_ORGANIZATION ( #146, #122 ) ;
#67 = PERSON_AND_ORGANIZATION ( #146, #122 ) ;
#68 = DIRECTION ( 'NONE',  ( -0.0000000000000000000, -0.0000000000000000000, -1.000000000000000000 ) ) ;
#69 = VERTEX_POINT ( 'NONE', #149 ) ;
#70 = ORIENTED_EDGE ( 'NONE', *, *, #91, .T. ) ;
#71 = APPLICATION_CONTEXT ( 'configuration controlled 3d designs of mechanical parts and assemblies' ) ;
#72 = FACE_OUTER_BOUND ( 'NONE', #14, .T. ) ;
#73 = LOCAL_TIME ( 16, 39, 28.00000000000000000, #11 ) ;
#74 = COORDINATED_UNIVERSAL_TIME_OFFSET ( 5, 0, .BEHIND. ) ;
#75 = ADVANCED_BREP_SHAPE_REPRESENTATION ( '36936_36936', ( #37, #12 ), #169 ) ;
#76 = CARTESIAN_POINT ( 'NONE',  ( 0.0000000000000000000, 0.0000000000000000000, 2.500000000000000000 ) ) ;
#77 = CLOSED_SHELL ( 'NONE', ( #143, #7, #157, #107 ) ) ;
#78 = CARTESIAN_POINT ( 'NONE',  ( 0.0000000000000000000, 0.0000000000000000000, 2.500000000000000000 ) ) ;
#79 = PRODUCT_DEFINITION_SHAPE ( 'NONE', 'NONE',  #134 ) ;
#80 = CARTESIAN_POINT ( 'NONE',  ( 0.0000000000000000000, 0.0000000000000000000, -2.500000000000000000 ) ) ;
#81 = FACE_OUTER_BOUND ( 'NONE', #154, .T. ) ;
#82 = DATE_AND_TIME ( #83, #158 ) ;
#83 = CALENDAR_DATE ( 2017, 23, 8 ) ;
#84 = DIRECTION ( 'NONE',  ( 0.0000000000000000000, 0.0000000000000000000, 1.000000000000000000 ) ) ;
#85 = PERSON_AND_ORGANIZATION_ROLE ( 'design_owner' ) ;
#86 = PERSON_AND_ORGANIZATION ( #146, #122 ) ;
#87 = DIRECTION ( 'NONE',  ( 0.0000000000000000000, 0.0000000000000000000, 1.000000000000000000 ) ) ;
#88 = CC_DESIGN_DATE_AND_TIME_ASSIGNMENT ( #165, #121, ( #139 ) ) ;
#89 = COORDINATED_UNIVERSAL_TIME_OFFSET ( 5, 0, .BEHIND. ) ;
#90 = CALENDAR_DATE ( 2017, 23, 8 ) ;
#91 = EDGE_CURVE ( 'NONE', #17, #69, #60, .T. ) ;
#92 = DIRECTION ( 'NONE',  ( -1.000000000000000000, 0.0000000000000000000, 0.0000000000000000000 ) ) ;
#93 = DIRECTION ( 'NONE',  ( 1.000000000000000000, 0.0000000000000000000, 0.0000000000000000000 ) ) ;
#94 = CARTESIAN_POINT ( 'NONE',  ( 0.0000000000000000000, 0.0000000000000000000, 2.500000000000000000 ) ) ;
#95 = SECURITY_CLASSIFICATION_LEVEL ( 'unclassified' ) ;
#96 = VECTOR ( 'NONE', #131, 1000.000000000000000 ) ;
#97 = PRODUCT_DEFINITION_FORMATION_WITH_SPECIFIED_SOURCE ( 'ANY', '', #22, .NOT_KNOWN. ) ;
#98 = APPROVAL_ROLE ( '' ) ;
#99 = CALENDAR_DATE ( 2017, 23, 8 ) ;
#100 = CC_DESIGN_PERSON_AND_ORGANIZATION_ASSIGNMENT ( #86, #58, ( #134 ) ) ;
#101 = SHAPE_DEFINITION_REPRESENTATION ( #79, #75 ) ;
#102 = PERSON_AND_ORGANIZATION ( #146, #122 ) ;
#103 = PLANE ( 'NONE',  #9 ) ;
#104 = CYLINDRICAL_SURFACE ( 'NONE', #113, 37.49999999999999300 ) ;
#105 = DIRECTION ( 'NONE',  ( 0.0000000000000000000, 0.0000000000000000000, 1.000000000000000000 ) ) ;
#106 = AXIS2_PLACEMENT_3D ( 'NONE', #80, #128, #93 ) ;
#107 = ADVANCED_FACE ( 'NONE', ( #126 ), #103, .F. ) ;
#108 = APPLICATION_PROTOCOL_DEFINITION ( 'international standard', 'config_control_design', 1994, #71 ) ;
#109 = MECHANICAL_CONTEXT ( 'NONE', #71, 'mechanical' ) ;
#110 = CC_DESIGN_PERSON_AND_ORGANIZATION_ASSIGNMENT ( #67, #85, ( #22 ) ) ;
#111 = ORIENTED_EDGE ( 'NONE', *, *, #168, .T. ) ;
#112 = APPROVAL_PERSON_ORGANIZATION ( #102, #29, #46 ) ;
#113 = AXIS2_PLACEMENT_3D ( 'NONE', #76, #116, #161 ) ;
#114 = CARTESIAN_POINT ( 'NONE',  ( 37.49999999999999300, 4.592425496802573600E-015, -2.500000000000000000 ) ) ;
#115 = PLANE ( 'NONE',  #150 ) ;
#116 = DIRECTION ( 'NONE',  ( -0.0000000000000000000, -0.0000000000000000000, -1.000000000000000000 ) ) ;
#117 = CARTESIAN_POINT ( 'NONE',  ( -37.49999999999999300, 0.0000000000000000000, 2.500000000000000000 ) ) ;
#118 = EDGE_CURVE ( 'NONE', #41, #1, #8, .T. ) ;
#119 = CC_DESIGN_DATE_AND_TIME_ASSIGNMENT ( #82, #136, ( #134 ) ) ;
#120 = APPROVAL_DATE_TIME ( #160, #19 ) ;
#121 = DATE_TIME_ROLE ( 'classification_date' ) ;
#122 = ORGANIZATION ( 'UNSPECIFIED', 'UNSPECIFIED', '' ) ;
#123 =( LENGTH_UNIT ( ) NAMED_UNIT ( * ) SI_UNIT ( .MILLI., .METRE. ) );
#124 = APPROVAL_DATE_TIME ( #49, #29 ) ;
#125 = EDGE_CURVE ( 'NONE', #69, #1, #170, .T. ) ;
#126 = FACE_OUTER_BOUND ( 'NONE', #174, .T. ) ;
#127 = ORIENTED_EDGE ( 'NONE', *, *, #54, .T. ) ;
#128 = DIRECTION ( 'NONE',  ( 0.0000000000000000000, 0.0000000000000000000, 1.000000000000000000 ) ) ;
#129 = CALENDAR_DATE ( 2017, 23, 8 ) ;
#130 = AXIS2_PLACEMENT_3D ( 'NONE', #94, #105, #28 ) ;
#131 = DIRECTION ( 'NONE',  ( -0.0000000000000000000, -0.0000000000000000000, -1.000000000000000000 ) ) ;
#132 = CYLINDRICAL_SURFACE ( 'NONE', #50, 37.49999999999999300 ) ;
#133 = VECTOR ( 'NONE', #68, 1000.000000000000000 ) ;
#134 = PRODUCT_DEFINITION ( 'UNKNOWN', '', #97, #10 ) ;
#135 = APPROVAL_PERSON_ORGANIZATION ( #175, #31, #30 ) ;
#136 = DATE_TIME_ROLE ( 'creation_date' ) ;
#137 =( NAMED_UNIT ( * ) PLANE_ANGLE_UNIT ( ) SI_UNIT ( $, .RADIAN. ) );
#138 = ORIENTED_EDGE ( 'NONE', *, *, #118, .T. ) ;
#139 = SECURITY_CLASSIFICATION ( '', '', #95 ) ;
#140 = DIRECTION ( 'NONE',  ( 1.000000000000000000, 0.0000000000000000000, 0.0000000000000000000 ) ) ;
#141 = APPROVAL_STATUS ( 'not_yet_approved' ) ;
#142 = CC_DESIGN_SECURITY_CLASSIFICATION ( #139, ( #97 ) ) ;
#143 = ADVANCED_FACE ( 'NONE', ( #72 ), #104, .T. ) ;
#144 = AXIS2_PLACEMENT_3D ( 'NONE', #156, #84, #34 ) ;
#145 = ORIENTED_EDGE ( 'NONE', *, *, #147, .F. ) ;
#146 = PERSON ( 'UNSPECIFIED', 'UNSPECIFIED', 'UNSPECIFIED', ('UNSPECIFIED'), ('UNSPECIFIED'), ('UNSPECIFIED') ) ;
#147 = EDGE_CURVE ( 'NONE', #41, #17, #62, .T. ) ;
#148 = CIRCLE ( 'NONE', #144, 37.49999999999999300 ) ;
#149 = CARTESIAN_POINT ( 'NONE',  ( -37.49999999999999300, 0.0000000000000000000, -2.500000000000000000 ) ) ;
#150 = AXIS2_PLACEMENT_3D ( 'NONE', #78, #173, #35 ) ;
#151 = CC_DESIGN_APPROVAL ( #19, ( #134 ) ) ;
#152 = EDGE_LOOP ( 'NONE', ( #111, #2 ) ) ;
#153 = PERSON_AND_ORGANIZATION_ROLE ( 'design_supplier' ) ;
#154 = EDGE_LOOP ( 'NONE', ( #48, #53, #70, #32 ) ) ;
#155 = APPROVAL_DATE_TIME ( #44, #31 ) ;
#156 = CARTESIAN_POINT ( 'NONE',  ( 0.0000000000000000000, 0.0000000000000000000, 2.500000000000000000 ) ) ;
#157 = ADVANCED_FACE ( 'NONE', ( #171 ), #115, .T. ) ;
#158 = LOCAL_TIME ( 16, 39, 28.00000000000000000, #74 ) ;
#159 = CIRCLE ( 'NONE', #15, 37.49999999999999300 ) ;
#160 = DATE_AND_TIME ( #90, #38 ) ;
#161 = DIRECTION ( 'NONE',  ( -1.000000000000000000, 0.0000000000000000000, 0.0000000000000000000 ) ) ;
#162 = CARTESIAN_POINT ( 'NONE',  ( 37.49999999999999300, 4.592425496802573600E-015, 2.500000000000000000 ) ) ;
#163 = ORIENTED_EDGE ( 'NONE', *, *, #54, .F. ) ;
#164 = CC_DESIGN_APPROVAL ( #31, ( #97 ) ) ;
#165 = DATE_AND_TIME ( #61, #55 ) ;
#166 = ORIENTED_EDGE ( 'NONE', *, *, #125, .F. ) ;
#167 =( NAMED_UNIT ( * ) SI_UNIT ( $, .STERADIAN. ) SOLID_ANGLE_UNIT ( ) );
#168 = EDGE_CURVE ( 'NONE', #17, #41, #148, .T. ) ;
#169 =( GEOMETRIC_REPRESENTATION_CONTEXT ( 3 ) GLOBAL_UNCERTAINTY_ASSIGNED_CONTEXT ( ( #4 ) ) GLOBAL_UNIT_ASSIGNED_CONTEXT ( ( #123, #137, #167 ) ) REPRESENTATION_CONTEXT ( 'NONE', 'WORKASPACE' ) );
#170 = CIRCLE ( 'NONE', #106, 37.49999999999999300 ) ;
#171 = FACE_OUTER_BOUND ( 'NONE', #152, .T. ) ;
#172 = CC_DESIGN_PERSON_AND_ORGANIZATION_ASSIGNMENT ( #36, #153, ( #97 ) ) ;
#173 = DIRECTION ( 'NONE',  ( 0.0000000000000000000, 0.0000000000000000000, 1.000000000000000000 ) ) ;
#174 = EDGE_LOOP ( 'NONE', ( #166, #163 ) ) ;
#175 = PERSON_AND_ORGANIZATION ( #146, #122 ) ;
ENDSEC;
END-ISO-10303-21;
