ISO-10303-21;
HEADER;
FILE_DESCRIPTION (( 'STEP AP214' ),
    '1' );
FILE_NAME ('20097.step',
    '2022-07-08T19:02:53',
    ( '' ),
    ( '' ),
    'SwSTEP 2.0',
    'SolidWorks 2021',
    '' );
FILE_SCHEMA (( 'AUTOMOTIVE_DESIGN' ));
ENDSEC;

DATA;
#1 = CARTESIAN_POINT ( 'NONE',  ( 0.000000000000000000, 0.000000000000000000, 0.000000000000000000 ) ) ;
#2 = PRODUCT_DEFINITION_SHAPE ( 'NONE', 'NONE',  #94 ) ;
#3 = FILL_AREA_STYLE ('',( #62 ) ) ;
#4 = APPLICATION_PROTOCOL_DEFINITION ( 'draft international standard', 'automotive_design', 1998, #102 ) ;
#5 = AXIS2_PLACEMENT_3D ( 'NONE', #132, #191, #113 ) ;
#6 = SHAPE_REPRESENTATION ( '49185', ( #39 ), #58 ) ;
#7 = LINE ( 'NONE', #193, #215 ) ;
#8 = FACE_OUTER_BOUND ( 'NONE', #179, .T. ) ;
#9 = COLOUR_RGB ( '',0.7529411764705882248, 0.7529411764705882248, 0.7529411764705882248 ) ;
#10 = FACE_OUTER_BOUND ( 'NONE', #240, .T. ) ;
#11 = DIRECTION ( 'NONE',  ( 5.241121710311499905E-31, 0.7071067811865542341, 0.7071067811865410224 ) ) ;
#12 = PRODUCT_DEFINITION_SHAPE ( 'NONE', 'NONE',  #255 ) ;
#13 = CARTESIAN_POINT ( 'NONE',  ( 49.49747468305845643, 35.00000000000000000, 1.317788665087443844E-13 ) ) ;
#14 = CARTESIAN_POINT ( 'NONE',  ( 1.526556658859593990E-15, 34.99999999999998579, 35.00000000000000000 ) ) ;
#15 = CONTEXT_DEPENDENT_SHAPE_REPRESENTATION ( #22, #12 ) ;
#16 = CONTEXT_DEPENDENT_SHAPE_REPRESENTATION ( #130, #192 ) ;
#17 = DIRECTION ( 'NONE',  ( 1.000000000000000000, 0.000000000000000000, 0.000000000000000000 ) ) ;
#18 = PRODUCT_DEFINITION_FORMATION_WITH_SPECIFIED_SOURCE ( 'ANY', '', #30, .NOT_KNOWN. ) ;
#19 = ORIENTED_EDGE ( 'NONE', *, *, #78, .T. ) ;
#20 = SURFACE_STYLE_FILL_AREA ( #3 ) ;
#21 = EDGE_CURVE ( 'NONE', #80, #79, #50, .T. ) ;
#22 =( REPRESENTATION_RELATIONSHIP ('NONE','NONE', #23, #51 ) REPRESENTATION_RELATIONSHIP_WITH_TRANSFORMATION ( #125 )SHAPE_REPRESENTATION_RELATIONSHIP( ) );
#23 = SHAPE_REPRESENTATION ( '20097', ( #66, #201 ), #155 ) ;
#24 = VECTOR ( 'NONE', #110, 1000.000000000000000 ) ;
#25 =( LENGTH_UNIT ( ) NAMED_UNIT ( * ) SI_UNIT ( .MILLI., .METRE. ) );
#26 = SHAPE_DEFINITION_REPRESENTATION ( #2, #51 ) ;
#27 = VECTOR ( 'NONE', #92, 1000.000000000000114 ) ;
#28 = CARTESIAN_POINT ( 'NONE',  ( 49.49747468305845643, 0.000000000000000000, 1.317788665087443844E-13 ) ) ;
#29 = PLANE ( 'NONE',  #61 ) ;
#30 = PRODUCT ( '20097', '20097', '', ( #198 ) ) ;
#31 = CARTESIAN_POINT ( 'NONE',  ( 24.74873734152952309, 0.000000000000000000, -24.74873734152925309 ) ) ;
#32 = COLOUR_RGB ( '',0.7529411764705882248, 0.7529411764705882248, 0.7529411764705882248 ) ;
#33 =( NAMED_UNIT ( * ) SI_UNIT ( $, .STERADIAN. ) SOLID_ANGLE_UNIT ( ) );
#34 = DIRECTION ( 'NONE',  ( -8.743118989217375137E-17, 1.000000000000000000, 1.972152263052529514E-31 ) ) ;
#35 = CONTEXT_DEPENDENT_SHAPE_REPRESENTATION ( #211, #233 ) ;
#36 =( GEOMETRIC_REPRESENTATION_CONTEXT ( 3 ) GLOBAL_UNCERTAINTY_ASSIGNED_CONTEXT ( ( #118 ) ) GLOBAL_UNIT_ASSIGNED_CONTEXT ( ( #126, #65, #44 ) ) REPRESENTATION_CONTEXT ( 'NONE', 'WORKASPACE' ) );
#37 = ORIENTED_EDGE ( 'NONE', *, *, #138, .F. ) ;
#38 = APPLICATION_CONTEXT ( 'automotive_design' ) ;
#39 = AXIS2_PLACEMENT_3D ( 'NONE', #81, #82, #241 ) ;
#40 = ADVANCED_FACE ( 'NONE', ( #8 ), #29, .F. ) ;
#41 = CARTESIAN_POINT ( 'NONE',  ( 0.000000000000000000, 0.000000000000000000, 0.000000000000000000 ) ) ;
#42 = CARTESIAN_POINT ( 'NONE',  ( 24.74873734152952309, 35.00000000000000000, -24.74873734152925309 ) ) ;
#43 = PRODUCT_DEFINITION_FORMATION_WITH_SPECIFIED_SOURCE ( 'ANY', '', #95, .NOT_KNOWN. ) ;
#44 =( NAMED_UNIT ( * ) SI_UNIT ( $, .STERADIAN. ) SOLID_ANGLE_UNIT ( ) );
#45 = APPLICATION_CONTEXT ( 'automotive_design' ) ;
#46 = SHAPE_DEFINITION_REPRESENTATION ( #49, #6 ) ;
#47 = LINE ( 'NONE', #28, #93 ) ;
#48 = CARTESIAN_POINT ( 'NONE',  ( 0.000000000000000000, 35.00000000000000000, 0.000000000000000000 ) ) ;
#49 = PRODUCT_DEFINITION_SHAPE ( 'NONE', 'NONE',  #239 ) ;
#50 = LINE ( 'NONE', #206, #24 ) ;
#51 = SHAPE_REPRESENTATION ( '47571', ( #5, #89, #236 ), #212 ) ;
#52 = ADVANCED_BREP_SHAPE_REPRESENTATION ( '', ( #253, #39 ), #58 ) ;
#53 = AXIS2_PLACEMENT_3D ( 'NONE', #156, #115, #194 ) ;
#54 = CARTESIAN_POINT ( 'NONE',  ( 35.00000000000000000, 4.586648305085631642E-15, -34.99999999999998579 ) ) ;
#55 = EDGE_CURVE ( 'NONE', #80, #75, #232, .T. ) ;
#56 = EDGE_CURVE ( 'NONE', #68, #219, #189, .T. ) ;
#57 = ORIENTED_EDGE ( 'NONE', *, *, #56, .F. ) ;
#58 =( GEOMETRIC_REPRESENTATION_CONTEXT ( 3 ) GLOBAL_UNCERTAINTY_ASSIGNED_CONTEXT ( ( #63 ) ) GLOBAL_UNIT_ASSIGNED_CONTEXT ( ( #121, #229, #222 ) ) REPRESENTATION_CONTEXT ( 'NONE', 'WORKASPACE' ) );
#59 = CARTESIAN_POINT ( 'NONE',  ( 0.000000000000000000, 0.000000000000000000, 0.000000000000000000 ) ) ;
#60 = ORIENTED_EDGE ( 'NONE', *, *, #220, .T. ) ;
#61 = AXIS2_PLACEMENT_3D ( 'NONE', #247, #208, #128 ) ;
#62 = FILL_AREA_STYLE_COLOUR ( '', #32 ) ;
#63 = UNCERTAINTY_MEASURE_WITH_UNIT (LENGTH_MEASURE( 1.000000000000000082E-05 ), #121, 'distance_accuracy_value', 'NONE');
#64 = PRODUCT_CONTEXT ( 'NONE', #45, 'mechanical' ) ;
#65 =( NAMED_UNIT ( * ) PLANE_ANGLE_UNIT ( ) SI_UNIT ( $, .RADIAN. ) );
#66 = AXIS2_PLACEMENT_3D ( 'NONE', #59, #135, #17 ) ;
#67 = SURFACE_STYLE_USAGE ( .BOTH. , #203 ) ;
#68 = VERTEX_POINT ( 'NONE', #209 ) ;
#69 = STYLED_ITEM ( 'NONE', ( #243 ), #253 ) ;
#70 = APPLICATION_CONTEXT ( 'automotive_design' ) ;
#71 = EDGE_LOOP ( 'NONE', ( #117, #37, #57 ) ) ;
#72 = LINE ( 'NONE', #127, #204 ) ;
#73 = LINE ( 'NONE', #188, #181 ) ;
#74 =( NAMED_UNIT ( * ) PLANE_ANGLE_UNIT ( ) SI_UNIT ( $, .RADIAN. ) );
#75 = VERTEX_POINT ( 'NONE', #111 ) ;
#76 = VECTOR ( 'NONE', #88, 1000.000000000000000 ) ;
#77 = ORIENTED_EDGE ( 'NONE', *, *, #21, .T. ) ;
#78 = EDGE_CURVE ( 'NONE', #119, #80, #73, .T. ) ;
#79 = VERTEX_POINT ( 'NONE', #41 ) ;
#80 = VERTEX_POINT ( 'NONE', #168 ) ;
#81 = CARTESIAN_POINT ( 'NONE',  ( 0.000000000000000000, 0.000000000000000000, 0.000000000000000000 ) ) ;
#82 = DIRECTION ( 'NONE',  ( 0.000000000000000000, 0.000000000000000000, 1.000000000000000000 ) ) ;
#83 = PRODUCT_DEFINITION_SHAPE ( 'NONE', 'NONE',  #87 ) ;
#84 = SURFACE_STYLE_USAGE ( .BOTH. , #105 ) ;
#85 = PRODUCT_CONTEXT ( 'NONE', #102, 'mechanical' ) ;
#86 = PRODUCT_DEFINITION_CONTEXT ( 'detailed design', #38, 'design' ) ;
#87 = PRODUCT_DEFINITION ( 'UNKNOWN', '', #195, #217 ) ;
#88 = DIRECTION ( 'NONE',  ( -0.000000000000000000, -1.000000000000000000, -0.000000000000000000 ) ) ;
#89 = AXIS2_PLACEMENT_3D ( 'NONE', #216, #235, #154 ) ;
#90 = APPLICATION_PROTOCOL_DEFINITION ( 'draft international standard', 'automotive_design', 1998, #139 ) ;
#91 = DIRECTION ( 'NONE',  ( 0.000000000000000000, -1.000000000000000000, 0.000000000000000000 ) ) ;
#92 = DIRECTION ( 'NONE',  ( -0.7071067811865411334, -0.000000000000000000, -0.7071067811865539010 ) ) ;
#93 = VECTOR ( 'NONE', #164, 1000.000000000000000 ) ;
#94 = PRODUCT_DEFINITION ( 'UNKNOWN', '', #43, #149 ) ;
#95 = PRODUCT ( '47571', '47571', '', ( #64 ) ) ;
#96 = DIRECTION ( 'NONE',  ( 0.000000000000000000, 0.000000000000000000, -1.000000000000000000 ) ) ;
#97 = CARTESIAN_POINT ( 'NONE',  ( 24.74873734152952309, 35.00000000000000000, -24.74873734152925309 ) ) ;
#98 = APPLICATION_PROTOCOL_DEFINITION ( 'draft international standard', 'automotive_design', 1998, #167 ) ;
#99 = ORIENTED_EDGE ( 'NONE', *, *, #213, .T. ) ;
#100 = ORIENTED_EDGE ( 'NONE', *, *, #138, .T. ) ;
#101 = PRESENTATION_LAYER_ASSIGNMENT (  '', '', ( #223 ) ) ;
#102 = APPLICATION_CONTEXT ( 'automotive_design' ) ;
#103 = DIRECTION ( 'NONE',  ( 0.7071067811865436870, -0.000000000000000000, 0.7071067811865514585 ) ) ;
#104 = DIRECTION ( 'NONE',  ( 0.7071067811865513475, 0.000000000000000000, -0.7071067811865435759 ) ) ;
#105 = SURFACE_SIDE_STYLE ('',( #20 ) ) ;
#106 = APPLICATION_PROTOCOL_DEFINITION ( 'draft international standard', 'automotive_design', 1998, #70 ) ;
#107 = PRODUCT_RELATED_PRODUCT_CATEGORY ( 'part', '', ( #120 ) ) ;
#108 = DIRECTION ( 'NONE',  ( 0.000000000000000000, 0.000000000000000000, -1.000000000000000000 ) ) ;
#109 = PLANE ( 'NONE',  #169 ) ;
#110 = DIRECTION ( 'NONE',  ( -0.000000000000000000, -1.000000000000000000, -0.000000000000000000 ) ) ;
#111 = CARTESIAN_POINT ( 'NONE',  ( 49.49747468305845643, 35.00000000000000000, 1.317788665087443844E-13 ) ) ;
#112 = VECTOR ( 'NONE', #234, 1000.000000000000114 ) ;
#113 = DIRECTION ( 'NONE',  ( 1.000000000000000000, 0.000000000000000000, 0.000000000000000000 ) ) ;
#114 = DIRECTION ( 'NONE',  ( -1.000000000000000000, 0.000000000000000000, -2.662335146440278057E-15 ) ) ;
#115 = DIRECTION ( 'NONE',  ( 0.000000000000000000, 0.000000000000000000, 1.000000000000000000 ) ) ;
#116 = DIRECTION ( 'NONE',  ( -4.930380657631323784E-31, 1.972152263052529514E-31, -1.000000000000000000 ) ) ;
#117 = ORIENTED_EDGE ( 'NONE', *, *, #220, .F. ) ;
#118 = UNCERTAINTY_MEASURE_WITH_UNIT (LENGTH_MEASURE( 1.000000000000000082E-05 ), #126, 'distance_accuracy_value', 'NONE');
#119 = VERTEX_POINT ( 'NONE', #190 ) ;
#120 = PRODUCT ( 'NOA61_NOA61orEquiv', 'NOA61_NOA61orEquiv', '', ( #228 ) ) ;
#121 =( LENGTH_UNIT ( ) NAMED_UNIT ( * ) SI_UNIT ( .MILLI., .METRE. ) );
#122 = PRODUCT_RELATED_PRODUCT_CATEGORY ( 'part', '', ( #95 ) ) ;
#123 = APPLICATION_PROTOCOL_DEFINITION ( 'draft international standard', 'automotive_design', 1998, #45 ) ;
#124 = CARTESIAN_POINT ( 'NONE',  ( 24.74873734152952309, 0.000000000000000000, -24.74873734152925309 ) ) ;
#125 = ITEM_DEFINED_TRANSFORMATION ( 'NONE', 'NONE', #201,  #5 ) ;
#126 =( LENGTH_UNIT ( ) NAMED_UNIT ( * ) SI_UNIT ( .MILLI., .METRE. ) );
#127 = CARTESIAN_POINT ( 'NONE',  ( 49.49747468305845643, 35.00000000000000000, 1.317788665087443844E-13 ) ) ;
#128 = DIRECTION ( 'NONE',  ( 0.7071067811865411334, 0.000000000000000000, 0.7071067811865539010 ) ) ;
#129 = SHAPE_REPRESENTATION_RELATIONSHIP ( 'NONE' , 'NONE' ,  #6, #52 ) ;
#130 =( REPRESENTATION_RELATIONSHIP ('NONE','NONE', #51, #6 ) REPRESENTATION_RELATIONSHIP_WITH_TRANSFORMATION ( #214 )SHAPE_REPRESENTATION_RELATIONSHIP( ) );
#131 = FACE_OUTER_BOUND ( 'NONE', #238, .T. ) ;
#132 = CARTESIAN_POINT ( 'NONE',  ( 0.000000000000000000, 0.000000000000000000, 0.000000000000000000 ) ) ;
#133 =( NAMED_UNIT ( * ) SI_UNIT ( $, .STERADIAN. ) SOLID_ANGLE_UNIT ( ) );
#134 = ADVANCED_FACE ( 'NONE', ( #10 ), #151, .F. ) ;
#135 = DIRECTION ( 'NONE',  ( 0.000000000000000000, 0.000000000000000000, 1.000000000000000000 ) ) ;
#136 = MECHANICAL_DESIGN_GEOMETRIC_PRESENTATION_REPRESENTATION (  '', ( #69 ), #36 ) ;
#137 = ORIENTED_EDGE ( 'NONE', *, *, #21, .F. ) ;
#138 = EDGE_CURVE ( 'NONE', #219, #79, #7, .T. ) ;
#139 = APPLICATION_CONTEXT ( 'automotive_design' ) ;
#140 = APPLICATION_PROTOCOL_DEFINITION ( 'draft international standard', 'automotive_design', 1998, #153 ) ;
#141 =( NAMED_UNIT ( * ) PLANE_ANGLE_UNIT ( ) SI_UNIT ( $, .RADIAN. ) );
#142 = ORIENTED_EDGE ( 'NONE', *, *, #78, .F. ) ;
#143 = PLANE ( 'NONE',  #237 ) ;
#144 = PRESENTATION_LAYER_ASSIGNMENT (  '', '', ( #69 ) ) ;
#145 = PRODUCT_DEFINITION_CONTEXT ( 'detailed design', #167, 'design' ) ;
#146 = LINE ( 'NONE', #42, #76 ) ;
#147 = DIRECTION ( 'NONE',  ( -0.7071067811865513475, -0.000000000000000000, 0.7071067811865435759 ) ) ;
#148 = ORIENTED_EDGE ( 'NONE', *, *, #176, .F. ) ;
#149 = PRODUCT_DEFINITION_CONTEXT ( 'detailed design', #242, 'design' ) ;
#150 = ORIENTED_EDGE ( 'NONE', *, *, #56, .T. ) ;
#151 = PLANE ( 'NONE',  #246 ) ;
#152 = EDGE_CURVE ( 'NONE', #75, #68, #72, .T. ) ;
#153 = APPLICATION_CONTEXT ( 'automotive_design' ) ;
#154 = DIRECTION ( 'NONE',  ( -4.500786560782650230E-31, -0.7071067811865540120, -0.7071067811865411334 ) ) ;
#155 =( GEOMETRIC_REPRESENTATION_CONTEXT ( 3 ) GLOBAL_UNCERTAINTY_ASSIGNED_CONTEXT ( ( #244 ) ) GLOBAL_UNIT_ASSIGNED_CONTEXT ( ( #197, #141, #175 ) ) REPRESENTATION_CONTEXT ( 'NONE', 'WORKASPACE' ) );
#156 = CARTESIAN_POINT ( 'NONE',  ( 0.000000000000000000, 0.000000000000000000, 0.000000000000000000 ) ) ;
#157 = PRODUCT_RELATED_PRODUCT_CATEGORY ( 'part', '', ( #202 ) ) ;
#158 = AXIS2_PLACEMENT_3D ( 'NONE', #1, #185, #108 ) ;
#159 = EDGE_LOOP ( 'NONE', ( #100, #137, #142, #99 ) ) ;
#160 = ORIENTED_EDGE ( 'NONE', *, *, #213, .F. ) ;
#161 = PRODUCT_DEFINITION_FORMATION_WITH_SPECIFIED_SOURCE ( 'ANY', '', #202, .NOT_KNOWN. ) ;
#162 = CARTESIAN_POINT ( 'NONE',  ( 0.000000000000000000, 35.00000000000000000, 0.000000000000000000 ) ) ;
#163 = PRESENTATION_STYLE_ASSIGNMENT (( #84 ) ) ;
#164 = DIRECTION ( 'NONE',  ( 1.000000000000000000, -0.000000000000000000, 2.662335146440278057E-15 ) ) ;
#165 = APPLICATION_PROTOCOL_DEFINITION ( 'draft international standard', 'automotive_design', 1998, #38 ) ;
#166 = FACE_OUTER_BOUND ( 'NONE', #159, .T. ) ;
#167 = APPLICATION_CONTEXT ( 'automotive_design' ) ;
#168 = CARTESIAN_POINT ( 'NONE',  ( 0.000000000000000000, 35.00000000000000000, 0.000000000000000000 ) ) ;
#169 = AXIS2_PLACEMENT_3D ( 'NONE', #172, #210, #114 ) ;
#170 = ORIENTED_EDGE ( 'NONE', *, *, #55, .T. ) ;
#171 = DIRECTION ( 'NONE',  ( -0.7071067811865513475, -0.000000000000000000, 0.7071067811865435759 ) ) ;
#172 = CARTESIAN_POINT ( 'NONE',  ( 49.49747468305845643, 35.00000000000000000, 1.317788665087443844E-13 ) ) ;
#173 = DIRECTION ( 'NONE',  ( -4.388308452627548748E-31, -0.7071067811865410224, 0.7071067811865542341 ) ) ;
#174 = ITEM_DEFINED_TRANSFORMATION ( 'NONE', 'NONE', #89,  #39 ) ;
#175 =( NAMED_UNIT ( * ) SI_UNIT ( $, .STERADIAN. ) SOLID_ANGLE_UNIT ( ) );
#176 = EDGE_CURVE ( 'NONE', #75, #119, #245, .T. ) ;
#177 = SHAPE_DEFINITION_REPRESENTATION ( #207, #23 ) ;
#178 = ORIENTED_EDGE ( 'NONE', *, *, #55, .F. ) ;
#179 = EDGE_LOOP ( 'NONE', ( #150, #160, #148, #199 ) ) ;
#180 = MECHANICAL_DESIGN_GEOMETRIC_PRESENTATION_REPRESENTATION (  '', ( #223 ), #225 ) ;
#181 = VECTOR ( 'NONE', #147, 1000.000000000000114 ) ;
#182 = SURFACE_STYLE_FILL_AREA ( #226 ) ;
#183 = PRODUCT_RELATED_PRODUCT_CATEGORY ( 'part', '', ( #30 ) ) ;
#184 = CLOSED_SHELL ( 'NONE', ( #186, #40, #227, #134, #200 ) ) ;
#185 = DIRECTION ( 'NONE',  ( 0.000000000000000000, -1.000000000000000000, 0.000000000000000000 ) ) ;
#186 = ADVANCED_FACE ( 'NONE', ( #131 ), #109, .F. ) ;
#187 = UNCERTAINTY_MEASURE_WITH_UNIT (LENGTH_MEASURE( 1.000000000000000082E-05 ), #251, 'distance_accuracy_value', 'NONE');
#188 = CARTESIAN_POINT ( 'NONE',  ( 0.000000000000000000, 35.00000000000000000, 0.000000000000000000 ) ) ;
#189 = LINE ( 'NONE', #31, #27 ) ;
#190 = CARTESIAN_POINT ( 'NONE',  ( 24.74873734152952309, 35.00000000000000000, -24.74873734152925309 ) ) ;
#191 = DIRECTION ( 'NONE',  ( 0.000000000000000000, 0.000000000000000000, 1.000000000000000000 ) ) ;
#192 = PRODUCT_DEFINITION_SHAPE ( 'NONE', 'NONE',  #257 ) ;
#193 = CARTESIAN_POINT ( 'NONE',  ( 0.000000000000000000, 0.000000000000000000, 0.000000000000000000 ) ) ;
#194 = DIRECTION ( 'NONE',  ( 1.000000000000000000, 0.000000000000000000, 0.000000000000000000 ) ) ;
#195 = PRODUCT_DEFINITION_FORMATION_WITH_SPECIFIED_SOURCE ( 'ANY', '', #120, .NOT_KNOWN. ) ;
#196 = ORIENTED_EDGE ( 'NONE', *, *, #176, .T. ) ;
#197 =( LENGTH_UNIT ( ) NAMED_UNIT ( * ) SI_UNIT ( .MILLI., .METRE. ) );
#198 = PRODUCT_CONTEXT ( 'NONE', #153, 'mechanical' ) ;
#199 = ORIENTED_EDGE ( 'NONE', *, *, #152, .T. ) ;
#200 = ADVANCED_FACE ( 'NONE', ( #250 ), #254, .T. ) ;
#201 = AXIS2_PLACEMENT_3D ( 'NONE', #14, #34, #116 ) ;
#202 = PRODUCT ( '49185', '49185', '', ( #85 ) ) ;
#203 = SURFACE_SIDE_STYLE ('',( #182 ) ) ;
#204 = VECTOR ( 'NONE', #249, 1000.000000000000000 ) ;
#205 = APPLICATION_PROTOCOL_DEFINITION ( 'draft international standard', 'automotive_design', 1998, #242 ) ;
#206 = CARTESIAN_POINT ( 'NONE',  ( 0.000000000000000000, 35.00000000000000000, 0.000000000000000000 ) ) ;
#207 = PRODUCT_DEFINITION_SHAPE ( 'NONE', 'NONE',  #231 ) ;
#208 = DIRECTION ( 'NONE',  ( -0.7071067811865539010, 0.000000000000000000, 0.7071067811865411334 ) ) ;
#209 = CARTESIAN_POINT ( 'NONE',  ( 49.49747468305845643, 0.000000000000000000, 1.317788665087443844E-13 ) ) ;
#210 = DIRECTION ( 'NONE',  ( 2.662335146440278057E-15, 0.000000000000000000, -1.000000000000000000 ) ) ;
#211 =( REPRESENTATION_RELATIONSHIP ('NONE','NONE', #51, #6 ) REPRESENTATION_RELATIONSHIP_WITH_TRANSFORMATION ( #174 )SHAPE_REPRESENTATION_RELATIONSHIP( ) );
#212 =( GEOMETRIC_REPRESENTATION_CONTEXT ( 3 ) GLOBAL_UNCERTAINTY_ASSIGNED_CONTEXT ( ( #187 ) ) GLOBAL_UNIT_ASSIGNED_CONTEXT ( ( #251, #74, #133 ) ) REPRESENTATION_CONTEXT ( 'NONE', 'WORKASPACE' ) );
#213 = EDGE_CURVE ( 'NONE', #119, #219, #146, .T. ) ;
#214 = ITEM_DEFINED_TRANSFORMATION ( 'NONE', 'NONE', #236,  #39 ) ;
#215 = VECTOR ( 'NONE', #171, 1000.000000000000114 ) ;
#216 = CARTESIAN_POINT ( 'NONE',  ( 35.00000000000000000, 35.00000000000032685, -1.318389841742373392E-13 ) ) ;
#217 = PRODUCT_DEFINITION_CONTEXT ( 'detailed design', #70, 'design' ) ;
#218 = ORIENTED_EDGE ( 'NONE', *, *, #152, .F. ) ;
#219 = VERTEX_POINT ( 'NONE', #124 ) ;
#220 = EDGE_CURVE ( 'NONE', #79, #68, #47, .T. ) ;
#221 = VECTOR ( 'NONE', #230, 1000.000000000000000 ) ;
#222 =( NAMED_UNIT ( * ) SI_UNIT ( $, .STERADIAN. ) SOLID_ANGLE_UNIT ( ) );
#223 = STYLED_ITEM ( 'NONE', ( #163 ), #52 ) ;
#224 = FILL_AREA_STYLE_COLOUR ( '', #9 ) ;
#225 =( GEOMETRIC_REPRESENTATION_CONTEXT ( 3 ) GLOBAL_UNCERTAINTY_ASSIGNED_CONTEXT ( ( #248 ) ) GLOBAL_UNIT_ASSIGNED_CONTEXT ( ( #25, #252, #33 ) ) REPRESENTATION_CONTEXT ( 'NONE', 'WORKASPACE' ) );
#226 = FILL_AREA_STYLE ('',( #224 ) ) ;
#227 = ADVANCED_FACE ( 'NONE', ( #166 ), #143, .F. ) ;
#228 = PRODUCT_CONTEXT ( 'NONE', #139, 'mechanical' ) ;
#229 =( NAMED_UNIT ( * ) PLANE_ANGLE_UNIT ( ) SI_UNIT ( $, .RADIAN. ) );
#230 = DIRECTION ( 'NONE',  ( 1.000000000000000000, -0.000000000000000000, 2.662335146440278057E-15 ) ) ;
#231 = PRODUCT_DEFINITION ( 'UNKNOWN', '', #18, #145 ) ;
#232 = LINE ( 'NONE', #13, #221 ) ;
#233 = PRODUCT_DEFINITION_SHAPE ( 'NONE', 'NONE',  #256 ) ;
#234 = DIRECTION ( 'NONE',  ( -0.7071067811865411334, -0.000000000000000000, -0.7071067811865539010 ) ) ;
#235 = DIRECTION ( 'NONE',  ( 4.500786560782567904E-31, 0.7071067811865411334, -0.7071067811865540120 ) ) ;
#236 = AXIS2_PLACEMENT_3D ( 'NONE', #54, #173, #11 ) ;
#237 = AXIS2_PLACEMENT_3D ( 'NONE', #162, #103, #104 ) ;
#238 = EDGE_LOOP ( 'NONE', ( #60, #218, #178, #77 ) ) ;
#239 = PRODUCT_DEFINITION ( 'UNKNOWN', '', #161, #86 ) ;
#240 = EDGE_LOOP ( 'NONE', ( #170, #196, #19 ) ) ;
#241 = DIRECTION ( 'NONE',  ( 1.000000000000000000, 0.000000000000000000, 0.000000000000000000 ) ) ;
#242 = APPLICATION_CONTEXT ( 'automotive_design' ) ;
#243 = PRESENTATION_STYLE_ASSIGNMENT (( #67 ) ) ;
#244 = UNCERTAINTY_MEASURE_WITH_UNIT (LENGTH_MEASURE( 1.000000000000000082E-05 ), #197, 'distance_accuracy_value', 'NONE');
#245 = LINE ( 'NONE', #97, #112 ) ;
#246 = AXIS2_PLACEMENT_3D ( 'NONE', #48, #91, #96 ) ;
#247 = CARTESIAN_POINT ( 'NONE',  ( 24.74873734152952309, 35.00000000000000000, -24.74873734152925309 ) ) ;
#248 = UNCERTAINTY_MEASURE_WITH_UNIT (LENGTH_MEASURE( 1.000000000000000082E-05 ), #25, 'distance_accuracy_value', 'NONE');
#249 = DIRECTION ( 'NONE',  ( -0.000000000000000000, -1.000000000000000000, -0.000000000000000000 ) ) ;
#250 = FACE_OUTER_BOUND ( 'NONE', #71, .T. ) ;
#251 =( LENGTH_UNIT ( ) NAMED_UNIT ( * ) SI_UNIT ( .MILLI., .METRE. ) );
#252 =( NAMED_UNIT ( * ) PLANE_ANGLE_UNIT ( ) SI_UNIT ( $, .RADIAN. ) );
#253 = MANIFOLD_SOLID_BREP ( 'Boss-Extrude1', #184 ) ;
#254 = PLANE ( 'NONE',  #158 ) ;
#255 = NEXT_ASSEMBLY_USAGE_OCCURRENCE ( 'NAUO1', ' ', ' ', #231, #94, $ ) ;
#256 = NEXT_ASSEMBLY_USAGE_OCCURRENCE ( 'NAUO2', ' ', ' ', #94, #239, $ ) ;
#257 = NEXT_ASSEMBLY_USAGE_OCCURRENCE ( 'NAUO3', ' ', ' ', #94, #239, $ ) ;
ENDSEC;
END-ISO-10303-21;
