ISO-10303-21;
HEADER;
FILE_DESCRIPTION (( 'STEP AP203' ),
    '1' );
FILE_NAME ('Web Model 12677_16592.step',
    '2020-11-23T16:03:43',
    ( '' ),
    ( '' ),
    'SwSTEP 2.0',
    'SolidWorks 2018',
    '' );
FILE_SCHEMA (( 'CONFIG_CONTROL_DESIGN' ));
ENDSEC;

DATA;
#1 = EDGE_CURVE ( 'NONE', #119, #90, #222, .T. ) ;
#2 = LOCAL_TIME ( 11, 3, 43.00000000000000000, #24 ) ;
#3 = CALENDAR_DATE ( 2020, 23, 11 ) ;
#4 = UNCERTAINTY_MEASURE_WITH_UNIT (LENGTH_MEASURE( 1.000000000000000082E-05 ), #158, 'distance_accuracy_value', 'NONE');
#5 = PLANE ( 'NONE',  #187 ) ;
#6 = PLANE ( 'NONE',  #121 ) ;
#7 = ADVANCED_BREP_SHAPE_REPRESENTATION ( 'Web Model 12677_16592', ( #145, #115 ), #178 ) ;
#8 = VERTEX_POINT ( 'NONE', #41 ) ;
#9 = PERSON_AND_ORGANIZATION_ROLE ( 'creator' ) ;
#10 = PRODUCT ( 'Web Model 12677_16592', 'Web Model 12677_16592', '', ( #136 ) ) ;
#11 = LOCAL_TIME ( 11, 3, 43.00000000000000000, #68 ) ;
#12 = APPROVAL_PERSON_ORGANIZATION ( #156, #221, #25 ) ;
#13 = LINE ( 'NONE', #184, #165 ) ;
#14 = EDGE_LOOP ( 'NONE', ( #152, #144, #96, #109 ) ) ;
#15 = PLANE ( 'NONE',  #176 ) ;
#16 = PRODUCT_RELATED_PRODUCT_CATEGORY ( 'detail', '', ( #10 ) ) ;
#17 = CARTESIAN_POINT ( 'NONE',  ( -12.50000000000000000, -12.50000000000000178, -0.2250000000000000056 ) ) ;
#18 = CC_DESIGN_APPROVAL ( #221, ( #196 ) ) ;
#19 = DIRECTION ( 'NONE',  ( 0.0000000000000000000, 1.000000000000000000, 0.0000000000000000000 ) ) ;
#20 = PERSON_AND_ORGANIZATION ( #57, #164 ) ;
#21 = ORIENTED_EDGE ( 'NONE', *, *, #1, .T. ) ;
#22 = CARTESIAN_POINT ( 'NONE',  ( 12.50000000000000000, -12.50000000000000178, 0.2250000000000000056 ) ) ;
#23 = APPLICATION_PROTOCOL_DEFINITION ( 'international standard', 'config_control_design', 1994, #85 ) ;
#24 = COORDINATED_UNIVERSAL_TIME_OFFSET ( 5, 0, .BEHIND. ) ;
#25 = APPROVAL_ROLE ( '' ) ;
#26 = APPROVAL_STATUS ( 'not_yet_approved' ) ;
#27 = DIRECTION ( 'NONE',  ( 0.0000000000000000000, -0.0000000000000000000, -1.000000000000000000 ) ) ;
#28 = EDGE_CURVE ( 'NONE', #98, #193, #206, .T. ) ;
#29 = DIRECTION ( 'NONE',  ( 0.0000000000000000000, 1.000000000000000000, 0.0000000000000000000 ) ) ;
#30 = ORIENTED_EDGE ( 'NONE', *, *, #56, .T. ) ;
#31 = ORIENTED_EDGE ( 'NONE', *, *, #236, .F. ) ;
#32 = ADVANCED_FACE ( 'NONE', ( #72 ), #15, .F. ) ;
#33 = ORIENTED_EDGE ( 'NONE', *, *, #236, .T. ) ;
#34 = EDGE_CURVE ( 'NONE', #8, #98, #149, .T. ) ;
#35 = CARTESIAN_POINT ( 'NONE',  ( -12.50000000000000000, -12.50000000000000178, 0.2250000000000000056 ) ) ;
#36 = LINE ( 'NONE', #63, #112 ) ;
#37 = COORDINATED_UNIVERSAL_TIME_OFFSET ( 5, 0, .BEHIND. ) ;
#38 = VERTEX_POINT ( 'NONE', #59 ) ;
#39 = EDGE_CURVE ( 'NONE', #193, #119, #218, .T. ) ;
#40 = CARTESIAN_POINT ( 'NONE',  ( 12.50000000000000000, -12.50000000000000178, -0.2250000000000000056 ) ) ;
#41 = CARTESIAN_POINT ( 'NONE',  ( 12.50000000000000000, 12.49999999999999822, 0.2250000000000000056 ) ) ;
#42 = VERTEX_POINT ( 'NONE', #35 ) ;
#43 = APPLICATION_CONTEXT ( 'configuration controlled 3d designs of mechanical parts and assemblies' ) ;
#44 = CC_DESIGN_PERSON_AND_ORGANIZATION_ASSIGNMENT ( #234, #9, ( #196 ) ) ;
#45 = CC_DESIGN_APPROVAL ( #190, ( #103 ) ) ;
#46 = APPROVAL_STATUS ( 'not_yet_approved' ) ;
#47 = ORIENTED_EDGE ( 'NONE', *, *, #179, .F. ) ;
#48 =( NAMED_UNIT ( * ) PLANE_ANGLE_UNIT ( ) SI_UNIT ( $, .RADIAN. ) );
#49 = ORIENTED_EDGE ( 'NONE', *, *, #128, .T. ) ;
#50 = APPLICATION_PROTOCOL_DEFINITION ( 'international standard', 'config_control_design', 1994, #43 ) ;
#51 = CC_DESIGN_DATE_AND_TIME_ASSIGNMENT ( #74, #231, ( #196 ) ) ;
#52 = DATE_AND_TIME ( #91, #2 ) ;
#53 = ORIENTED_EDGE ( 'NONE', *, *, #28, .T. ) ;
#54 = CC_DESIGN_APPROVAL ( #181, ( #60 ) ) ;
#55 = LOCAL_TIME ( 11, 3, 43.00000000000000000, #199 ) ;
#56 = EDGE_CURVE ( 'NONE', #42, #119, #160, .T. ) ;
#57 = PERSON ( 'UNSPECIFIED', 'UNSPECIFIED', 'UNSPECIFIED', ('UNSPECIFIED'), ('UNSPECIFIED'), ('UNSPECIFIED') ) ;
#58 = ORIENTED_EDGE ( 'NONE', *, *, #204, .T. ) ;
#59 = CARTESIAN_POINT ( 'NONE',  ( -12.50000000000000000, 12.49999999999999822, 0.2250000000000000056 ) ) ;
#60 = SECURITY_CLASSIFICATION ( '', '', #157 ) ;
#61 = DATE_AND_TIME ( #116, #198 ) ;
#62 = ORIENTED_EDGE ( 'NONE', *, *, #128, .F. ) ;
#63 = CARTESIAN_POINT ( 'NONE',  ( -12.50000000000000000, -12.50000000000000178, 0.2250000000000000056 ) ) ;
#64 = VECTOR ( 'NONE', #125, 1000.000000000000000 ) ;
#65 = EDGE_LOOP ( 'NONE', ( #58, #75, #62, #33 ) ) ;
#66 = DIRECTION ( 'NONE',  ( 0.0000000000000000000, 0.0000000000000000000, -1.000000000000000000 ) ) ;
#67 = PERSON_AND_ORGANIZATION_ROLE ( 'creator' ) ;
#68 = COORDINATED_UNIVERSAL_TIME_OFFSET ( 5, 0, .BEHIND. ) ;
#69 = PERSON_AND_ORGANIZATION ( #57, #164 ) ;
#70 = ORIENTED_EDGE ( 'NONE', *, *, #174, .T. ) ;
#71 = DIRECTION ( 'NONE',  ( 0.0000000000000000000, -1.000000000000000000, 0.0000000000000000000 ) ) ;
#72 = FACE_OUTER_BOUND ( 'NONE', #88, .T. ) ;
#73 = SHAPE_DEFINITION_REPRESENTATION ( #185, #7 ) ;
#74 = DATE_AND_TIME ( #180, #118 ) ;
#75 = ORIENTED_EDGE ( 'NONE', *, *, #34, .F. ) ;
#76 = CARTESIAN_POINT ( 'NONE',  ( -12.50000000000000000, -12.50000000000000178, -0.2250000000000000056 ) ) ;
#77 = DIRECTION ( 'NONE',  ( -0.0000000000000000000, -1.000000000000000000, -0.0000000000000000000 ) ) ;
#78 = LINE ( 'NONE', #104, #211 ) ;
#79 = VECTOR ( 'NONE', #226, 1000.000000000000000 ) ;
#80 = ORIENTED_EDGE ( 'NONE', *, *, #39, .T. ) ;
#81 = DIRECTION ( 'NONE',  ( -0.0000000000000000000, -1.000000000000000000, -0.0000000000000000000 ) ) ;
#82 = CARTESIAN_POINT ( 'NONE',  ( -12.50000000000000000, -12.50000000000000178, 0.2250000000000000056 ) ) ;
#83 = LINE ( 'NONE', #188, #79 ) ;
#84 = DIRECTION ( 'NONE',  ( 0.0000000000000000000, 0.0000000000000000000, 1.000000000000000000 ) ) ;
#85 = APPLICATION_CONTEXT ( 'configuration controlled 3d designs of mechanical parts and assemblies' ) ;
#86 = PLANE ( 'NONE',  #120 ) ;
#87 = APPROVAL_PERSON_ORGANIZATION ( #148, #181, #140 ) ;
#88 = EDGE_LOOP ( 'NONE', ( #49, #215, #237, #70 ) ) ;
#89 = APPROVAL_DATE_TIME ( #146, #181 ) ;
#90 = VERTEX_POINT ( 'NONE', #40 ) ;
#91 = CALENDAR_DATE ( 2020, 23, 11 ) ;
#92 = ORIENTED_EDGE ( 'NONE', *, *, #56, .F. ) ;
#93 = VERTEX_POINT ( 'NONE', #150 ) ;
#94 = DESIGN_CONTEXT ( 'detailed design', #43, 'design' ) ;
#95 = CARTESIAN_POINT ( 'NONE',  ( -12.50000000000000000, -12.50000000000000178, -0.2250000000000000056 ) ) ;
#96 = ORIENTED_EDGE ( 'NONE', *, *, #39, .F. ) ;
#97 = CC_DESIGN_PERSON_AND_ORGANIZATION_ASSIGNMENT ( #167, #67, ( #103 ) ) ;
#98 = VERTEX_POINT ( 'NONE', #147 ) ;
#99 = PLANE ( 'NONE',  #169 ) ;
#100 = CC_DESIGN_DATE_AND_TIME_ASSIGNMENT ( #52, #117, ( #60 ) ) ;
#101 = DIRECTION ( 'NONE',  ( 1.000000000000000000, 0.0000000000000000000, 0.0000000000000000000 ) ) ;
#102 = PERSON_AND_ORGANIZATION ( #57, #164 ) ;
#103 = PRODUCT_DEFINITION_FORMATION_WITH_SPECIFIED_SOURCE ( 'ANY', '', #10, .NOT_KNOWN. ) ;
#104 = CARTESIAN_POINT ( 'NONE',  ( 12.50000000000000000, -12.50000000000000178, 0.2250000000000000056 ) ) ;
#105 = DIRECTION ( 'NONE',  ( -0.0000000000000000000, -0.0000000000000000000, -1.000000000000000000 ) ) ;
#106 = CARTESIAN_POINT ( 'NONE',  ( 0.0000000000000000000, 0.0000000000000000000, 0.0000000000000000000 ) ) ;
#107 = FACE_OUTER_BOUND ( 'NONE', #233, .T. ) ;
#108 = VECTOR ( 'NONE', #29, 1000.000000000000000 ) ;
#109 = ORIENTED_EDGE ( 'NONE', *, *, #28, .F. ) ;
#110 = CARTESIAN_POINT ( 'NONE',  ( -12.50000000000000000, 12.49999999999999822, -0.2250000000000000056 ) ) ;
#111 = DIRECTION ( 'NONE',  ( -1.000000000000000000, -0.0000000000000000000, -0.0000000000000000000 ) ) ;
#112 = VECTOR ( 'NONE', #81, 1000.000000000000000 ) ;
#113 = CARTESIAN_POINT ( 'NONE',  ( -12.50000000000000000, -12.50000000000000178, 0.2250000000000000056 ) ) ;
#114 = CARTESIAN_POINT ( 'NONE',  ( -12.50000000000000000, -12.50000000000000178, 0.2250000000000000056 ) ) ;
#115 = AXIS2_PLACEMENT_3D ( 'NONE', #106, #84, #155 ) ;
#116 = CALENDAR_DATE ( 2020, 23, 11 ) ;
#117 = DATE_TIME_ROLE ( 'classification_date' ) ;
#118 = LOCAL_TIME ( 11, 3, 43.00000000000000000, #37 ) ;
#119 = VERTEX_POINT ( 'NONE', #95 ) ;
#120 = AXIS2_PLACEMENT_3D ( 'NONE', #137, #71, #27 ) ;
#121 = AXIS2_PLACEMENT_3D ( 'NONE', #210, #209, #135 ) ;
#122 = FACE_OUTER_BOUND ( 'NONE', #65, .T. ) ;
#123 = ORIENTED_EDGE ( 'NONE', *, *, #174, .F. ) ;
#124 = AXIS2_PLACEMENT_3D ( 'NONE', #114, #175, #227 ) ;
#125 = DIRECTION ( 'NONE',  ( -1.000000000000000000, -0.0000000000000000000, -0.0000000000000000000 ) ) ;
#126 = CC_DESIGN_PERSON_AND_ORGANIZATION_ASSIGNMENT ( #102, #213, ( #60 ) ) ;
#127 = VECTOR ( 'NONE', #200, 1000.000000000000000 ) ;
#128 = EDGE_CURVE ( 'NONE', #93, #8, #13, .T. ) ;
#129 = LINE ( 'NONE', #182, #217 ) ;
#130 = DIRECTION ( 'NONE',  ( -0.0000000000000000000, -0.0000000000000000000, -1.000000000000000000 ) ) ;
#131 = DIRECTION ( 'NONE',  ( 0.0000000000000000000, -0.0000000000000000000, 1.000000000000000000 ) ) ;
#132 = EDGE_CURVE ( 'NONE', #8, #38, #129, .T. ) ;
#133 = ORIENTED_EDGE ( 'NONE', *, *, #179, .T. ) ;
#134 = CC_DESIGN_PERSON_AND_ORGANIZATION_ASSIGNMENT ( #138, #189, ( #103 ) ) ;
#135 = DIRECTION ( 'NONE',  ( -1.000000000000000000, 0.0000000000000000000, -0.0000000000000000000 ) ) ;
#136 = MECHANICAL_CONTEXT ( 'NONE', #85, 'mechanical' ) ;
#137 = CARTESIAN_POINT ( 'NONE',  ( -12.50000000000000000, 12.49999999999999822, 0.2250000000000000056 ) ) ;
#138 = PERSON_AND_ORGANIZATION ( #57, #164 ) ;
#139 = FACE_OUTER_BOUND ( 'NONE', #14, .T. ) ;
#140 = APPROVAL_ROLE ( '' ) ;
#141 = EDGE_CURVE ( 'NONE', #38, #42, #36, .T. ) ;
#142 = EDGE_LOOP ( 'NONE', ( #21, #31, #123, #30 ) ) ;
#143 = FACE_OUTER_BOUND ( 'NONE', #142, .T. ) ;
#144 = ORIENTED_EDGE ( 'NONE', *, *, #1, .F. ) ;
#145 = MANIFOLD_SOLID_BREP ( 'Boss-Extrude1', #207 ) ;
#146 = DATE_AND_TIME ( #232, #11 ) ;
#147 = CARTESIAN_POINT ( 'NONE',  ( 12.50000000000000000, 12.49999999999999822, -0.2250000000000000056 ) ) ;
#148 = PERSON_AND_ORGANIZATION ( #57, #164 ) ;
#149 = LINE ( 'NONE', #203, #223 ) ;
#150 = CARTESIAN_POINT ( 'NONE',  ( 12.50000000000000000, -12.50000000000000178, 0.2250000000000000056 ) ) ;
#151 = COORDINATED_UNIVERSAL_TIME_OFFSET ( 5, 0, .BEHIND. ) ;
#152 = ORIENTED_EDGE ( 'NONE', *, *, #204, .F. ) ;
#153 = CARTESIAN_POINT ( 'NONE',  ( -12.50000000000000000, -12.50000000000000178, 0.2250000000000000056 ) ) ;
#154 = PERSON_AND_ORGANIZATION_ROLE ( 'design_owner' ) ;
#155 = DIRECTION ( 'NONE',  ( 1.000000000000000000, 0.0000000000000000000, 0.0000000000000000000 ) ) ;
#156 = PERSON_AND_ORGANIZATION ( #57, #164 ) ;
#157 = SECURITY_CLASSIFICATION_LEVEL ( 'unclassified' ) ;
#158 =( LENGTH_UNIT ( ) NAMED_UNIT ( * ) SI_UNIT ( .MILLI., .METRE. ) );
#159 = PLANE ( 'NONE',  #124 ) ;
#160 = LINE ( 'NONE', #153, #127 ) ;
#161 = ORIENTED_EDGE ( 'NONE', *, *, #34, .T. ) ;
#162 = ADVANCED_FACE ( 'NONE', ( #122 ), #5, .F. ) ;
#163 = ADVANCED_FACE ( 'NONE', ( #143 ), #99, .F. ) ;
#164 = ORGANIZATION ( 'UNSPECIFIED', 'UNSPECIFIED', '' ) ;
#165 = VECTOR ( 'NONE', #19, 1000.000000000000000 ) ;
#166 = CARTESIAN_POINT ( 'NONE',  ( 0.0000000000000000000, 0.0000000000000000000, 0.2250000000000000056 ) ) ;
#167 = PERSON_AND_ORGANIZATION ( #57, #164 ) ;
#168 = LINE ( 'NONE', #194, #108 ) ;
#169 = AXIS2_PLACEMENT_3D ( 'NONE', #113, #220, #131 ) ;
#170 = DATE_AND_TIME ( #3, #55 ) ;
#171 = CARTESIAN_POINT ( 'NONE',  ( -12.50000000000000000, 12.49999999999999822, -0.2250000000000000056 ) ) ;
#172 = LINE ( 'NONE', #82, #228 ) ;
#173 = APPROVAL_STATUS ( 'not_yet_approved' ) ;
#174 = EDGE_CURVE ( 'NONE', #42, #93, #172, .T. ) ;
#175 = DIRECTION ( 'NONE',  ( 1.000000000000000000, 0.0000000000000000000, 0.0000000000000000000 ) ) ;
#176 = AXIS2_PLACEMENT_3D ( 'NONE', #166, #66, #208 ) ;
#177 = VECTOR ( 'NONE', #77, 1000.000000000000000 ) ;
#178 =( GEOMETRIC_REPRESENTATION_CONTEXT ( 3 ) GLOBAL_UNCERTAINTY_ASSIGNED_CONTEXT ( ( #4 ) ) GLOBAL_UNIT_ASSIGNED_CONTEXT ( ( #158, #48, #229 ) ) REPRESENTATION_CONTEXT ( 'NONE', 'WORKASPACE' ) );
#179 = EDGE_CURVE ( 'NONE', #38, #193, #83, .T. ) ;
#180 = CALENDAR_DATE ( 2020, 23, 11 ) ;
#181 = APPROVAL ( #46, 'UNSPECIFIED' ) ;
#182 = CARTESIAN_POINT ( 'NONE',  ( -12.50000000000000000, 12.49999999999999822, 0.2250000000000000056 ) ) ;
#183 = CC_DESIGN_PERSON_AND_ORGANIZATION_ASSIGNMENT ( #69, #154, ( #10 ) ) ;
#184 = CARTESIAN_POINT ( 'NONE',  ( 12.50000000000000000, -12.50000000000000178, 0.2250000000000000056 ) ) ;
#185 = PRODUCT_DEFINITION_SHAPE ( 'NONE', 'NONE',  #196 ) ;
#186 = VECTOR ( 'NONE', #202, 1000.000000000000000 ) ;
#187 = AXIS2_PLACEMENT_3D ( 'NONE', #22, #225, #205 ) ;
#188 = CARTESIAN_POINT ( 'NONE',  ( -12.50000000000000000, 12.49999999999999822, 0.2250000000000000056 ) ) ;
#189 = PERSON_AND_ORGANIZATION_ROLE ( 'design_supplier' ) ;
#190 = APPROVAL ( #26, 'UNSPECIFIED' ) ;
#191 = APPROVAL_DATE_TIME ( #61, #190 ) ;
#192 = APPROVAL_DATE_TIME ( #170, #221 ) ;
#193 = VERTEX_POINT ( 'NONE', #171 ) ;
#194 = CARTESIAN_POINT ( 'NONE',  ( 12.50000000000000000, -12.50000000000000178, -0.2250000000000000056 ) ) ;
#195 = CC_DESIGN_SECURITY_CLASSIFICATION ( #60, ( #103 ) ) ;
#196 = PRODUCT_DEFINITION ( 'UNKNOWN', '', #103, #94 ) ;
#197 = ADVANCED_FACE ( 'NONE', ( #139 ), #6, .T. ) ;
#198 = LOCAL_TIME ( 11, 3, 43.00000000000000000, #151 ) ;
#199 = COORDINATED_UNIVERSAL_TIME_OFFSET ( 5, 0, .BEHIND. ) ;
#200 = DIRECTION ( 'NONE',  ( -0.0000000000000000000, -0.0000000000000000000, -1.000000000000000000 ) ) ;
#201 = EDGE_LOOP ( 'NONE', ( #53, #47, #224, #161 ) ) ;
#202 = DIRECTION ( 'NONE',  ( 1.000000000000000000, 0.0000000000000000000, 0.0000000000000000000 ) ) ;
#203 = CARTESIAN_POINT ( 'NONE',  ( 12.50000000000000000, 12.49999999999999822, 0.2250000000000000056 ) ) ;
#204 = EDGE_CURVE ( 'NONE', #90, #98, #168, .T. ) ;
#205 = DIRECTION ( 'NONE',  ( 0.0000000000000000000, 0.0000000000000000000, 1.000000000000000000 ) ) ;
#206 = LINE ( 'NONE', #110, #64 ) ;
#207 = CLOSED_SHELL ( 'NONE', ( #162, #235, #216, #163, #32, #197 ) ) ;
#208 = DIRECTION ( 'NONE',  ( -1.000000000000000000, 0.0000000000000000000, -0.0000000000000000000 ) ) ;
#209 = DIRECTION ( 'NONE',  ( 0.0000000000000000000, 0.0000000000000000000, -1.000000000000000000 ) ) ;
#210 = CARTESIAN_POINT ( 'NONE',  ( 0.0000000000000000000, 0.0000000000000000000, -0.2250000000000000056 ) ) ;
#211 = VECTOR ( 'NONE', #105, 1000.000000000000000 ) ;
#212 = APPROVAL_ROLE ( '' ) ;
#213 = PERSON_AND_ORGANIZATION_ROLE ( 'classification_officer' ) ;
#214 = APPROVAL_PERSON_ORGANIZATION ( #20, #190, #212 ) ;
#215 = ORIENTED_EDGE ( 'NONE', *, *, #132, .T. ) ;
#216 = ADVANCED_FACE ( 'NONE', ( #107 ), #159, .F. ) ;
#217 = VECTOR ( 'NONE', #111, 1000.000000000000000 ) ;
#218 = LINE ( 'NONE', #17, #177 ) ;
#219 = ORIENTED_EDGE ( 'NONE', *, *, #141, .F. ) ;
#220 = DIRECTION ( 'NONE',  ( 0.0000000000000000000, 1.000000000000000000, 0.0000000000000000000 ) ) ;
#221 = APPROVAL ( #173, 'UNSPECIFIED' ) ;
#222 = LINE ( 'NONE', #76, #186 ) ;
#223 = VECTOR ( 'NONE', #130, 1000.000000000000000 ) ;
#224 = ORIENTED_EDGE ( 'NONE', *, *, #132, .F. ) ;
#225 = DIRECTION ( 'NONE',  ( -1.000000000000000000, 0.0000000000000000000, 0.0000000000000000000 ) ) ;
#226 = DIRECTION ( 'NONE',  ( -0.0000000000000000000, -0.0000000000000000000, -1.000000000000000000 ) ) ;
#227 = DIRECTION ( 'NONE',  ( 0.0000000000000000000, 0.0000000000000000000, -1.000000000000000000 ) ) ;
#228 = VECTOR ( 'NONE', #101, 1000.000000000000000 ) ;
#229 =( NAMED_UNIT ( * ) SI_UNIT ( $, .STERADIAN. ) SOLID_ANGLE_UNIT ( ) );
#230 = FACE_OUTER_BOUND ( 'NONE', #201, .T. ) ;
#231 = DATE_TIME_ROLE ( 'creation_date' ) ;
#232 = CALENDAR_DATE ( 2020, 23, 11 ) ;
#233 = EDGE_LOOP ( 'NONE', ( #80, #92, #219, #133 ) ) ;
#234 = PERSON_AND_ORGANIZATION ( #57, #164 ) ;
#235 = ADVANCED_FACE ( 'NONE', ( #230 ), #86, .F. ) ;
#236 = EDGE_CURVE ( 'NONE', #93, #90, #78, .T. ) ;
#237 = ORIENTED_EDGE ( 'NONE', *, *, #141, .T. ) ;
ENDSEC;
END-ISO-10303-21;
