ISO-10303-21;
HEADER;
FILE_DESCRIPTION (( 'STEP AP203' ),
    '1' );
FILE_NAME ('Web Model 89564.STEP',
    '2017-02-01T16:30:29',
    ( '' ),
    ( '' ),
    'SwSTEP 2.0',
    'SolidWorks 2016',
    '' );
FILE_SCHEMA (( 'CONFIG_CONTROL_DESIGN' ));
ENDSEC;

DATA;
#1 = EDGE_CURVE ( 'NONE', #136, #141, #55, .T. ) ;
#2 = CARTESIAN_POINT ( 'NONE',  ( 2.000000000000000000, 0.0000000000000000000, 0.0000000000000000000 ) ) ;
#3 = CARTESIAN_POINT ( 'NONE',  ( 0.0000000000000000000, 0.0000000000000000000, 0.0000000000000000000 ) ) ;
#4 = APPROVAL ( #53, 'UNSPECIFIED' ) ;
#5 = DIRECTION ( 'NONE',  ( 0.0000000000000000000, 0.0000000000000000000, -1.000000000000000000 ) ) ;
#6 = ORIENTED_EDGE ( 'NONE', *, *, #42, .F. ) ;
#7 = CC_DESIGN_PERSON_AND_ORGANIZATION_ASSIGNMENT ( #47, #165, ( #98 ) ) ;
#8 = DATE_AND_TIME ( #106, #93 ) ;
#9 = VERTEX_POINT ( 'NONE', #58 ) ;
#10 = CC_DESIGN_PERSON_AND_ORGANIZATION_ASSIGNMENT ( #19, #167, ( #159 ) ) ;
#11 = EDGE_CURVE ( 'NONE', #73, #9, #149, .T. ) ;
#12 = FACE_OUTER_BOUND ( 'NONE', #169, .T. ) ;
#13 = PRODUCT_DEFINITION_SHAPE ( 'NONE', 'NONE',  #142 ) ;
#14 = PERSON_AND_ORGANIZATION ( #109, #60 ) ;
#15 = ORIENTED_EDGE ( 'NONE', *, *, #105, .F. ) ;
#16 = PERSON_AND_ORGANIZATION_ROLE ( 'creator' ) ;
#17 = AXIS2_PLACEMENT_3D ( 'NONE', #148, #95, #133 ) ;
#18 = CARTESIAN_POINT ( 'NONE',  ( 2.000000000000000000, 0.0000000000000000000, 0.0000000000000000000 ) ) ;
#19 = PERSON_AND_ORGANIZATION ( #109, #60 ) ;
#20 = ORIENTED_EDGE ( 'NONE', *, *, #1, .F. ) ;
#21 = CARTESIAN_POINT ( 'NONE',  ( 2.000000000000000000, 1.530808498934191500E-015, -12.50000000000000000 ) ) ;
#22 = DESIGN_CONTEXT ( 'detailed design', #38, 'design' ) ;
#23 = PERSON_AND_ORGANIZATION ( #109, #60 ) ;
#24 = ADVANCED_FACE ( 'NONE', ( #102 ), #83, .T. ) ;
#25 = CALENDAR_DATE ( 2017, 1, 2 ) ;
#26 = PRODUCT ( 'Web Model 89564', 'Web Model 89564', '', ( #70 ) ) ;
#27 = DATE_TIME_ROLE ( 'creation_date' ) ;
#28 = CYLINDRICAL_SURFACE ( 'NONE', #139, 12.50000000000000000 ) ;
#29 = PERSON_AND_ORGANIZATION_ROLE ( 'creator' ) ;
#30 = DIRECTION ( 'NONE',  ( 0.0000000000000000000, 0.0000000000000000000, 1.000000000000000000 ) ) ;
#31 = APPLICATION_PROTOCOL_DEFINITION ( 'international standard', 'config_control_design', 1994, #152 ) ;
#32 = DIRECTION ( 'NONE',  ( 1.000000000000000000, 0.0000000000000000000, 0.0000000000000000000 ) ) ;
#33 = ORIENTED_EDGE ( 'NONE', *, *, #11, .T. ) ;
#34 =( NAMED_UNIT ( * ) PLANE_ANGLE_UNIT ( ) SI_UNIT ( $, .RADIAN. ) );
#35 = LOCAL_TIME ( 11, 30, 29.00000000000000000, #115 ) ;
#36 = FACE_OUTER_BOUND ( 'NONE', #74, .T. ) ;
#37 = CC_DESIGN_DATE_AND_TIME_ASSIGNMENT ( #78, #77, ( #98 ) ) ;
#38 = APPLICATION_CONTEXT ( 'configuration controlled 3d designs of mechanical parts and assemblies' ) ;
#39 = LOCAL_TIME ( 11, 30, 29.00000000000000000, #143 ) ;
#40 = CIRCLE ( 'NONE', #17, 12.50000000000000000 ) ;
#41 = SECURITY_CLASSIFICATION_LEVEL ( 'unclassified' ) ;
#42 = EDGE_CURVE ( 'NONE', #141, #136, #40, .T. ) ;
#43 = LOCAL_TIME ( 11, 30, 29.00000000000000000, #75 ) ;
#44 = CARTESIAN_POINT ( 'NONE',  ( 2.000000000000000000, 0.0000000000000000000, 12.50000000000000000 ) ) ;
#45 = PERSON_AND_ORGANIZATION ( #109, #60 ) ;
#46 = DIRECTION ( 'NONE',  ( -1.000000000000000000, -0.0000000000000000000, -0.0000000000000000000 ) ) ;
#47 = PERSON_AND_ORGANIZATION ( #109, #60 ) ;
#48 = CC_DESIGN_PERSON_AND_ORGANIZATION_ASSIGNMENT ( #147, #29, ( #159 ) ) ;
#49 = APPROVAL_DATE_TIME ( #125, #4 ) ;
#50 = APPROVAL_STATUS ( 'not_yet_approved' ) ;
#51 = APPROVAL_PERSON_ORGANIZATION ( #23, #161, #104 ) ;
#52 = ORIENTED_EDGE ( 'NONE', *, *, #42, .T. ) ;
#53 = APPROVAL_STATUS ( 'not_yet_approved' ) ;
#54 = APPROVAL ( #164, 'UNSPECIFIED' ) ;
#55 = CIRCLE ( 'NONE', #123, 12.50000000000000000 ) ;
#56 = DIRECTION ( 'NONE',  ( 0.0000000000000000000, 0.0000000000000000000, 1.000000000000000000 ) ) ;
#57 = AXIS2_PLACEMENT_3D ( 'NONE', #120, #170, #30 ) ;
#58 = CARTESIAN_POINT ( 'NONE',  ( 2.000000000000000000, 0.0000000000000000000, 12.50000000000000000 ) ) ;
#59 = CARTESIAN_POINT ( 'NONE',  ( 0.0000000000000000000, 0.0000000000000000000, 0.0000000000000000000 ) ) ;
#60 = ORGANIZATION ( 'UNSPECIFIED', 'UNSPECIFIED', '' ) ;
#61 =( NAMED_UNIT ( * ) SI_UNIT ( $, .STERADIAN. ) SOLID_ANGLE_UNIT ( ) );
#62 = DIRECTION ( 'NONE',  ( 0.0000000000000000000, 0.0000000000000000000, 1.000000000000000000 ) ) ;
#63 = CLOSED_SHELL ( 'NONE', ( #119, #156, #24, #172 ) ) ;
#64 = SHAPE_DEFINITION_REPRESENTATION ( #13, #174 ) ;
#65 = CALENDAR_DATE ( 2017, 1, 2 ) ;
#66 = ORIENTED_EDGE ( 'NONE', *, *, #1, .T. ) ;
#67 = CARTESIAN_POINT ( 'NONE',  ( 0.0000000000000000000, 1.530808498934191500E-015, -12.50000000000000000 ) ) ;
#68 = CARTESIAN_POINT ( 'NONE',  ( 2.000000000000000000, 1.530808498934191500E-015, -12.50000000000000000 ) ) ;
#69 = DIRECTION ( 'NONE',  ( 0.0000000000000000000, 0.0000000000000000000, -1.000000000000000000 ) ) ;
#70 = MECHANICAL_CONTEXT ( 'NONE', #152, 'mechanical' ) ;
#71 = MANIFOLD_SOLID_BREP ( 'Extrude1', #63 ) ;
#72 = APPROVAL_PERSON_ORGANIZATION ( #14, #4, #114 ) ;
#73 = VERTEX_POINT ( 'NONE', #68 ) ;
#74 = EDGE_LOOP ( 'NONE', ( #99, #79, #52, #108 ) ) ;
#75 = COORDINATED_UNIVERSAL_TIME_OFFSET ( 5, 0, .BEHIND. ) ;
#76 = ORIENTED_EDGE ( 'NONE', *, *, #155, .T. ) ;
#77 = DATE_TIME_ROLE ( 'classification_date' ) ;
#78 = DATE_AND_TIME ( #25, #39 ) ;
#79 = ORIENTED_EDGE ( 'NONE', *, *, #105, .T. ) ;
#80 = DIRECTION ( 'NONE',  ( 1.000000000000000000, 0.0000000000000000000, 0.0000000000000000000 ) ) ;
#81 = LOCAL_TIME ( 11, 30, 29.00000000000000000, #112 ) ;
#82 = CC_DESIGN_APPROVAL ( #4, ( #159 ) ) ;
#83 = PLANE ( 'NONE',  #89 ) ;
#84 = DIRECTION ( 'NONE',  ( 1.000000000000000000, 0.0000000000000000000, 0.0000000000000000000 ) ) ;
#85 = CALENDAR_DATE ( 2017, 1, 2 ) ;
#86 = PLANE ( 'NONE',  #127 ) ;
#87 = CALENDAR_DATE ( 2017, 1, 2 ) ;
#88 = EDGE_LOOP ( 'NONE', ( #111, #33 ) ) ;
#89 = AXIS2_PLACEMENT_3D ( 'NONE', #2, #32, #96 ) ;
#90 = CYLINDRICAL_SURFACE ( 'NONE', #57, 12.50000000000000000 ) ;
#91 = APPROVAL_ROLE ( '' ) ;
#92 =( GEOMETRIC_REPRESENTATION_CONTEXT ( 3 ) GLOBAL_UNCERTAINTY_ASSIGNED_CONTEXT ( ( #140 ) ) GLOBAL_UNIT_ASSIGNED_CONTEXT ( ( #107, #34, #61 ) ) REPRESENTATION_CONTEXT ( 'NONE', 'WORKASPACE' ) );
#93 = LOCAL_TIME ( 11, 30, 29.00000000000000000, #166 ) ;
#94 = CARTESIAN_POINT ( 'NONE',  ( 2.000000000000000000, 0.0000000000000000000, 0.0000000000000000000 ) ) ;
#95 = DIRECTION ( 'NONE',  ( 1.000000000000000000, 0.0000000000000000000, 0.0000000000000000000 ) ) ;
#96 = DIRECTION ( 'NONE',  ( 0.0000000000000000000, 0.0000000000000000000, -1.000000000000000000 ) ) ;
#97 = FACE_OUTER_BOUND ( 'NONE', #130, .T. ) ;
#98 = SECURITY_CLASSIFICATION ( '', '', #41 ) ;
#99 = ORIENTED_EDGE ( 'NONE', *, *, #11, .F. ) ;
#100 = PERSON_AND_ORGANIZATION_ROLE ( 'design_owner' ) ;
#101 = APPROVAL_DATE_TIME ( #132, #54 ) ;
#102 = FACE_OUTER_BOUND ( 'NONE', #88, .T. ) ;
#103 = CC_DESIGN_APPROVAL ( #54, ( #98 ) ) ;
#104 = APPROVAL_ROLE ( '' ) ;
#105 = EDGE_CURVE ( 'NONE', #73, #141, #160, .T. ) ;
#106 = CALENDAR_DATE ( 2017, 1, 2 ) ;
#107 =( LENGTH_UNIT ( ) NAMED_UNIT ( * ) SI_UNIT ( .MILLI., .METRE. ) );
#108 = ORIENTED_EDGE ( 'NONE', *, *, #155, .F. ) ;
#109 = PERSON ( 'UNSPECIFIED', 'UNSPECIFIED', 'UNSPECIFIED', ('UNSPECIFIED'), ('UNSPECIFIED'), ('UNSPECIFIED') ) ;
#110 = CARTESIAN_POINT ( 'NONE',  ( 0.0000000000000000000, 0.0000000000000000000, 0.0000000000000000000 ) ) ;
#111 = ORIENTED_EDGE ( 'NONE', *, *, #171, .T. ) ;
#112 = COORDINATED_UNIVERSAL_TIME_OFFSET ( 5, 0, .BEHIND. ) ;
#113 = CIRCLE ( 'NONE', #135, 12.50000000000000000 ) ;
#114 = APPROVAL_ROLE ( '' ) ;
#115 = COORDINATED_UNIVERSAL_TIME_OFFSET ( 5, 0, .BEHIND. ) ;
#116 = LINE ( 'NONE', #44, #128 ) ;
#117 = AXIS2_PLACEMENT_3D ( 'NONE', #94, #118, #150 ) ;
#118 = DIRECTION ( 'NONE',  ( 1.000000000000000000, 0.0000000000000000000, 0.0000000000000000000 ) ) ;
#119 = ADVANCED_FACE ( 'NONE', ( #36 ), #28, .T. ) ;
#120 = CARTESIAN_POINT ( 'NONE',  ( 2.000000000000000000, 0.0000000000000000000, 0.0000000000000000000 ) ) ;
#121 = DIRECTION ( 'NONE',  ( -1.000000000000000000, -0.0000000000000000000, -0.0000000000000000000 ) ) ;
#122 = APPROVAL_PERSON_ORGANIZATION ( #175, #54, #91 ) ;
#123 = AXIS2_PLACEMENT_3D ( 'NONE', #3, #80, #5 ) ;
#124 = ORIENTED_EDGE ( 'NONE', *, *, #171, .F. ) ;
#125 = DATE_AND_TIME ( #85, #35 ) ;
#126 = PERSON_AND_ORGANIZATION ( #109, #60 ) ;
#127 = AXIS2_PLACEMENT_3D ( 'NONE', #59, #84, #138 ) ;
#128 = VECTOR ( 'NONE', #134, 1000.000000000000000 ) ;
#129 = APPLICATION_PROTOCOL_DEFINITION ( 'international standard', 'config_control_design', 1994, #38 ) ;
#130 = EDGE_LOOP ( 'NONE', ( #15, #124, #76, #66 ) ) ;
#131 = CC_DESIGN_PERSON_AND_ORGANIZATION_ASSIGNMENT ( #45, #16, ( #142 ) ) ;
#132 = DATE_AND_TIME ( #87, #81 ) ;
#133 = DIRECTION ( 'NONE',  ( 0.0000000000000000000, 0.0000000000000000000, -1.000000000000000000 ) ) ;
#134 = DIRECTION ( 'NONE',  ( -1.000000000000000000, -0.0000000000000000000, -0.0000000000000000000 ) ) ;
#135 = AXIS2_PLACEMENT_3D ( 'NONE', #151, #137, #69 ) ;
#136 = VERTEX_POINT ( 'NONE', #145 ) ;
#137 = DIRECTION ( 'NONE',  ( 1.000000000000000000, 0.0000000000000000000, 0.0000000000000000000 ) ) ;
#138 = DIRECTION ( 'NONE',  ( 0.0000000000000000000, 0.0000000000000000000, -1.000000000000000000 ) ) ;
#139 = AXIS2_PLACEMENT_3D ( 'NONE', #18, #121, #56 ) ;
#140 = UNCERTAINTY_MEASURE_WITH_UNIT (LENGTH_MEASURE( 1.000000000000000100E-005 ), #107, 'distance_accuracy_value', 'NONE');
#141 = VERTEX_POINT ( 'NONE', #67 ) ;
#142 = PRODUCT_DEFINITION ( 'UNKNOWN', '', #159, #22 ) ;
#143 = COORDINATED_UNIVERSAL_TIME_OFFSET ( 5, 0, .BEHIND. ) ;
#144 = AXIS2_PLACEMENT_3D ( 'NONE', #110, #62, #157 ) ;
#145 = CARTESIAN_POINT ( 'NONE',  ( 0.0000000000000000000, 0.0000000000000000000, 12.50000000000000000 ) ) ;
#146 = CC_DESIGN_PERSON_AND_ORGANIZATION_ASSIGNMENT ( #126, #100, ( #26 ) ) ;
#147 = PERSON_AND_ORGANIZATION ( #109, #60 ) ;
#148 = CARTESIAN_POINT ( 'NONE',  ( 0.0000000000000000000, 0.0000000000000000000, 0.0000000000000000000 ) ) ;
#149 = CIRCLE ( 'NONE', #117, 12.50000000000000000 ) ;
#150 = DIRECTION ( 'NONE',  ( 0.0000000000000000000, 0.0000000000000000000, -1.000000000000000000 ) ) ;
#151 = CARTESIAN_POINT ( 'NONE',  ( 2.000000000000000000, 0.0000000000000000000, 0.0000000000000000000 ) ) ;
#152 = APPLICATION_CONTEXT ( 'configuration controlled 3d designs of mechanical parts and assemblies' ) ;
#153 = CC_DESIGN_SECURITY_CLASSIFICATION ( #98, ( #159 ) ) ;
#154 = DATE_AND_TIME ( #65, #43 ) ;
#155 = EDGE_CURVE ( 'NONE', #9, #136, #116, .T. ) ;
#156 = ADVANCED_FACE ( 'NONE', ( #97 ), #90, .T. ) ;
#157 = DIRECTION ( 'NONE',  ( 1.000000000000000000, 0.0000000000000000000, 0.0000000000000000000 ) ) ;
#158 = VECTOR ( 'NONE', #46, 1000.000000000000000 ) ;
#159 = PRODUCT_DEFINITION_FORMATION_WITH_SPECIFIED_SOURCE ( 'ANY', '', #26, .NOT_KNOWN. ) ;
#160 = LINE ( 'NONE', #21, #158 ) ;
#161 = APPROVAL ( #50, 'UNSPECIFIED' ) ;
#162 = APPROVAL_DATE_TIME ( #154, #161 ) ;
#163 = CC_DESIGN_APPROVAL ( #161, ( #142 ) ) ;
#164 = APPROVAL_STATUS ( 'not_yet_approved' ) ;
#165 = PERSON_AND_ORGANIZATION_ROLE ( 'classification_officer' ) ;
#166 = COORDINATED_UNIVERSAL_TIME_OFFSET ( 5, 0, .BEHIND. ) ;
#167 = PERSON_AND_ORGANIZATION_ROLE ( 'design_supplier' ) ;
#168 = PRODUCT_RELATED_PRODUCT_CATEGORY ( 'detail', '', ( #26 ) ) ;
#169 = EDGE_LOOP ( 'NONE', ( #20, #6 ) ) ;
#170 = DIRECTION ( 'NONE',  ( -1.000000000000000000, -0.0000000000000000000, -0.0000000000000000000 ) ) ;
#171 = EDGE_CURVE ( 'NONE', #9, #73, #113, .T. ) ;
#172 = ADVANCED_FACE ( 'NONE', ( #12 ), #86, .F. ) ;
#173 = CC_DESIGN_DATE_AND_TIME_ASSIGNMENT ( #8, #27, ( #142 ) ) ;
#174 = ADVANCED_BREP_SHAPE_REPRESENTATION ( 'Web Model 89564', ( #71, #144 ), #92 ) ;
#175 = PERSON_AND_ORGANIZATION ( #109, #60 ) ;
ENDSEC;
END-ISO-10303-21;
