ISO-10303-21;
HEADER;
FILE_DESCRIPTION (( 'STEP AP203' ),
    '1' );
FILE_NAME ('4297-E0W.STEP',
    '2015-05-29T14:16:37',
    ( 'admin' ),
    ( '' ),
    'SwSTEP 2.0',
    'SolidWorks 2014',
    '' );
FILE_SCHEMA (( 'CONFIG_CONTROL_DESIGN' ));
ENDSEC;

DATA;
#1 = PRODUCT_DEFINITION_FORMATION_WITH_SPECIFIED_SOURCE ( 'ANY', '', #82, .NOT_KNOWN. ) ;
#2 = CARTESIAN_POINT ( 'NONE',  ( -2.899999999999999900, 3.110602869834276900E-015, -25.39999999999999900 ) ) ;
#3 = CC_DESIGN_DATE_AND_TIME_ASSIGNMENT ( #190, #53, ( #43 ) ) ;
#4 = PERSON_AND_ORGANIZATION ( #173, #120 ) ;
#5 = CARTESIAN_POINT ( 'NONE',  ( -0.1500000000022039300, 0.0000000000000000000, 25.39999999999999900 ) ) ;
#6 = VERTEX_POINT ( 'NONE', #260 ) ;
#7 = CC_DESIGN_PERSON_AND_ORGANIZATION_ASSIGNMENT ( #293, #111, ( #1 ) ) ;
#8 = CARTESIAN_POINT ( 'NONE',  ( 0.0000000000000000000, 0.0000000000000000000, 0.0000000000000000000 ) ) ;
#9 = ORIENTED_EDGE ( 'NONE', *, *, #272, .T. ) ;
#10 = FACE_OUTER_BOUND ( 'NONE', #257, .T. ) ;
#11 =( LENGTH_UNIT ( ) NAMED_UNIT ( * ) SI_UNIT ( .MILLI., .METRE. ) );
#12 = DIRECTION ( 'NONE',  ( 0.0000000000000000000, 0.0000000000000000000, -1.000000000000000000 ) ) ;
#13 = CONICAL_SURFACE ( 'NONE', #76, 25.39999999999999900, 0.6748348963709589500 ) ;
#14 = SECURITY_CLASSIFICATION_LEVEL ( 'unclassified' ) ;
#15 = CC_DESIGN_PERSON_AND_ORGANIZATION_ASSIGNMENT ( #61, #199, ( #43 ) ) ;
#16 = APPLICATION_CONTEXT ( 'configuration controlled 3d designs of mechanical parts and assemblies' ) ;
#17 = ADVANCED_FACE ( 'NONE', ( #41 ), #254, .T. ) ;
#18 = CALENDAR_DATE ( 2015, 29, 5 ) ;
#19 = CC_DESIGN_APPROVAL ( #40, ( #43 ) ) ;
#20 = DIRECTION ( 'NONE',  ( 0.0000000000000000000, 0.0000000000000000000, -1.000000000000000000 ) ) ;
#21 = CARTESIAN_POINT ( 'NONE',  ( 0.1544935271752950800, 0.0000000000000000000, 0.0000000000000000000 ) ) ;
#22 = ORIENTED_EDGE ( 'NONE', *, *, #198, .T. ) ;
#23 = DIRECTION ( 'NONE',  ( 0.0000000000000000000, 0.0000000000000000000, 1.000000000000000000 ) ) ;
#24 = CARTESIAN_POINT ( 'NONE',  ( -2.649999999999989300, 0.0000000000000000000, 0.0000000000000000000 ) ) ;
#25 = DIRECTION ( 'NONE',  ( -1.000000000000000000, -0.0000000000000000000, -0.0000000000000000000 ) ) ;
#26 = CARTESIAN_POINT ( 'NONE',  ( -2.899999999999999900, 0.0000000000000000000, 0.0000000000000000000 ) ) ;
#27 = APPROVAL_ROLE ( '' ) ;
#28 = AXIS2_PLACEMENT_3D ( 'NONE', #163, #125, #12 ) ;
#29 = DIRECTION ( 'NONE',  ( 0.7071067811865574500, 8.659560562354813300E-017, 0.7071067811865376900 ) ) ;
#30 = CARTESIAN_POINT ( 'NONE',  ( -2.649999999999989300, 0.0000000000000000000, 0.0000000000000000000 ) ) ;
#31 =( NAMED_UNIT ( * ) SI_UNIT ( $, .STERADIAN. ) SOLID_ANGLE_UNIT ( ) );
#32 = PERSON_AND_ORGANIZATION ( #173, #120 ) ;
#33 = APPROVAL_DATE_TIME ( #153, #156 ) ;
#34 = DIRECTION ( 'NONE',  ( -1.000000000000000000, -0.0000000000000000000, -0.0000000000000000000 ) ) ;
#35 = CARTESIAN_POINT ( 'NONE',  ( -2.649999999999989300, 0.0000000000000000000, 25.39999999999999900 ) ) ;
#36 = DESIGN_CONTEXT ( 'detailed design', #16, 'design' ) ;
#37 = ORIENTED_EDGE ( 'NONE', *, *, #272, .F. ) ;
#38 =( GEOMETRIC_REPRESENTATION_CONTEXT ( 3 ) GLOBAL_UNCERTAINTY_ASSIGNED_CONTEXT ( ( #281 ) ) GLOBAL_UNIT_ASSIGNED_CONTEXT ( ( #11, #99, #31 ) ) REPRESENTATION_CONTEXT ( 'NONE', 'WORKASPACE' ) );
#39 = ORIENTED_EDGE ( 'NONE', *, *, #229, .T. ) ;
#40 = APPROVAL ( #73, 'UNSPECIFIED' ) ;
#41 = FACE_OUTER_BOUND ( 'NONE', #280, .T. ) ;
#42 = CARTESIAN_POINT ( 'NONE',  ( 0.1544935271753020100, 3.080765361752450000E-015, -25.15635825690639000 ) ) ;
#43 = PRODUCT_DEFINITION ( 'UNKNOWN', '', #1, #36 ) ;
#44 = CARTESIAN_POINT ( 'NONE',  ( -2.899999999999999900, 0.0000000000000000000, 0.0000000000000000000 ) ) ;
#45 = CARTESIAN_POINT ( 'NONE',  ( -2.899999999999999900, 0.0000000000000000000, 0.0000000000000000000 ) ) ;
#46 = CC_DESIGN_PERSON_AND_ORGANIZATION_ASSIGNMENT ( #291, #204, ( #82 ) ) ;
#47 = LINE ( 'NONE', #152, #299 ) ;
#48 = ADVANCED_FACE ( 'NONE', ( #78 ), #279, .T. ) ;
#49 = COORDINATED_UNIVERSAL_TIME_OFFSET ( 5, 0, .BEHIND. ) ;
#50 = LOCAL_TIME ( 10, 16, 37.00000000000000000, #127 ) ;
#51 = VERTEX_POINT ( 'NONE', #114 ) ;
#52 = AXIS2_PLACEMENT_3D ( 'NONE', #8, #145, #301 ) ;
#53 = DATE_TIME_ROLE ( 'creation_date' ) ;
#54 = CARTESIAN_POINT ( 'NONE',  ( -0.1500000000022039300, 0.0000000000000000000, 0.0000000000000000000 ) ) ;
#55 = DIRECTION ( 'NONE',  ( -1.000000000000000000, -0.0000000000000000000, -0.0000000000000000000 ) ) ;
#56 = CARTESIAN_POINT ( 'NONE',  ( -2.899999999999999900, 3.079986699855593100E-015, 25.14999999999999500 ) ) ;
#57 = ORIENTED_EDGE ( 'NONE', *, *, #230, .T. ) ;
#58 = VECTOR ( 'NONE', #287, 1000.000000000000000 ) ;
#59 = DIRECTION ( 'NONE',  ( -1.000000000000000000, -0.0000000000000000000, -0.0000000000000000000 ) ) ;
#60 = DIRECTION ( 'NONE',  ( 0.0000000000000000000, 0.0000000000000000000, 1.000000000000000000 ) ) ;
#61 = PERSON_AND_ORGANIZATION ( #173, #120 ) ;
#62 = VERTEX_POINT ( 'NONE', #94 ) ;
#63 = CIRCLE ( 'NONE', #151, 115.0000000000000000 ) ;
#64 = EDGE_CURVE ( 'NONE', #191, #149, #274, .T. ) ;
#65 = DIRECTION ( 'NONE',  ( 1.000000000000000000, 0.0000000000000000000, 0.0000000000000000000 ) ) ;
#66 = ADVANCED_BREP_SHAPE_REPRESENTATION ( '4297-E0W', ( #113, #52 ), #38 ) ;
#67 = ORIENTED_EDGE ( 'NONE', *, *, #282, .T. ) ;
#68 = ORIENTED_EDGE ( 'NONE', *, *, #289, .T. ) ;
#69 = CIRCLE ( 'NONE', #286, 25.39999999999999900 ) ;
#70 = LINE ( 'NONE', #2, #246 ) ;
#71 = AXIS2_PLACEMENT_3D ( 'NONE', #168, #123, #148 ) ;
#72 = DIRECTION ( 'NONE',  ( 1.000000000000000000, 0.0000000000000000000, 0.0000000000000000000 ) ) ;
#73 = APPROVAL_STATUS ( 'not_yet_approved' ) ;
#74 = ORIENTED_EDGE ( 'NONE', *, *, #214, .T. ) ;
#75 = ADVANCED_FACE ( 'NONE', ( #206 ), #193, .T. ) ;
#76 = AXIS2_PLACEMENT_3D ( 'NONE', #221, #181, #269 ) ;
#77 = LINE ( 'NONE', #101, #115 ) ;
#78 = FACE_OUTER_BOUND ( 'NONE', #147, .T. ) ;
#79 = CARTESIAN_POINT ( 'NONE',  ( -112.0998635090740100, 0.0000000000000000000, 0.0000000000000000000 ) ) ;
#80 = ORIENTED_EDGE ( 'NONE', *, *, #83, .F. ) ;
#81 = COORDINATED_UNIVERSAL_TIME_OFFSET ( 5, 0, .BEHIND. ) ;
#82 = PRODUCT ( '4297-E0W', '4297-E0W', '', ( #117 ) ) ;
#83 = EDGE_CURVE ( 'NONE', #136, #213, #47, .T. ) ;
#84 = APPROVAL_PERSON_ORGANIZATION ( #108, #156, #121 ) ;
#85 = ORIENTED_EDGE ( 'NONE', *, *, #214, .F. ) ;
#86 = LOCAL_TIME ( 10, 16, 37.00000000000000000, #236 ) ;
#87 = DIRECTION ( 'NONE',  ( 1.000000000000000000, 0.0000000000000000000, 0.0000000000000000000 ) ) ;
#88 = DIRECTION ( 'NONE',  ( 0.0000000000000000000, -1.224646799147353200E-016, 1.000000000000000000 ) ) ;
#89 = COORDINATED_UNIVERSAL_TIME_OFFSET ( 5, 0, .BEHIND. ) ;
#90 = DIRECTION ( 'NONE',  ( 0.7071067811865574500, 0.0000000000000000000, -0.7071067811865376900 ) ) ;
#91 = DIRECTION ( 'NONE',  ( -1.000000000000000000, -0.0000000000000000000, -0.0000000000000000000 ) ) ;
#92 = APPROVAL ( #138, 'UNSPECIFIED' ) ;
#93 = ADVANCED_FACE ( 'NONE', ( #109 ), #137, .T. ) ;
#94 = CARTESIAN_POINT ( 'NONE',  ( -2.899999999999999900, 3.095294784844935000E-015, 25.14999999999999500 ) ) ;
#95 = CARTESIAN_POINT ( 'NONE',  ( -0.1500000000022039300, 3.110602869834276100E-015, -25.39999999999999900 ) ) ;
#96 = DIRECTION ( 'NONE',  ( 0.0000000000000000000, -1.000000000000000000, 0.0000000000000000000 ) ) ;
#97 = CIRCLE ( 'NONE', #175, 115.0000000000000000 ) ;
#98 = TOROIDAL_SURFACE ( 'NONE', #247, 0.1771804005745187300, 115.0000000000000000 ) ;
#99 =( NAMED_UNIT ( * ) PLANE_ANGLE_UNIT ( ) SI_UNIT ( $, .RADIAN. ) );
#100 = ADVANCED_FACE ( 'NONE', ( #249 ), #13, .T. ) ;
#101 = CARTESIAN_POINT ( 'NONE',  ( -2.899999999999999900, 0.0000000000000000000, 25.39999999999999900 ) ) ;
#102 = PRODUCT_DEFINITION_SHAPE ( 'NONE', 'NONE',  #43 ) ;
#103 = VERTEX_POINT ( 'NONE', #42 ) ;
#104 = ORIENTED_EDGE ( 'NONE', *, *, #83, .T. ) ;
#105 = SECURITY_CLASSIFICATION ( '', '', #14 ) ;
#106 = LOCAL_TIME ( 10, 16, 37.00000000000000000, #81 ) ;
#107 = ORIENTED_EDGE ( 'NONE', *, *, #112, .F. ) ;
#108 = PERSON_AND_ORGANIZATION ( #173, #120 ) ;
#109 = FACE_OUTER_BOUND ( 'NONE', #244, .T. ) ;
#110 = CIRCLE ( 'NONE', #166, 25.39999999999999900 ) ;
#111 = PERSON_AND_ORGANIZATION_ROLE ( 'design_supplier' ) ;
#112 = EDGE_CURVE ( 'NONE', #149, #164, #77, .T. ) ;
#113 = MANIFOLD_SOLID_BREP ( '4297-001-1-solid1', #130 ) ;
#114 = CARTESIAN_POINT ( 'NONE',  ( 2.899999999999999900, 0.0000000000000000000, 0.0000000000000000000 ) ) ;
#115 = VECTOR ( 'NONE', #222, 1000.000000000000000 ) ;
#116 = EDGE_CURVE ( 'NONE', #62, #164, #242, .T. ) ;
#117 = MECHANICAL_CONTEXT ( 'NONE', #248, 'mechanical' ) ;
#118 = CARTESIAN_POINT ( 'NONE',  ( -2.649999999999989300, 3.110602869834276900E-015, -25.39999999999999900 ) ) ;
#119 = CALENDAR_DATE ( 2015, 29, 5 ) ;
#120 = ORGANIZATION ( 'UNSPECIFIED', 'UNSPECIFIED', '' ) ;
#121 = APPROVAL_ROLE ( '' ) ;
#122 = CARTESIAN_POINT ( 'NONE',  ( -2.899999999999999900, 0.0000000000000000000, 0.0000000000000000000 ) ) ;
#123 = DIRECTION ( 'NONE',  ( -1.000000000000000000, -0.0000000000000000000, -0.0000000000000000000 ) ) ;
#124 = APPROVAL_PERSON_ORGANIZATION ( #32, #40, #296 ) ;
#125 = DIRECTION ( 'NONE',  ( 1.000000000000000000, 0.0000000000000000000, 0.0000000000000000000 ) ) ;
#126 = ORIENTED_EDGE ( 'NONE', *, *, #185, .T. ) ;
#127 = COORDINATED_UNIVERSAL_TIME_OFFSET ( 5, 0, .BEHIND. ) ;
#128 = DIRECTION ( 'NONE',  ( 0.0000000000000000000, 0.0000000000000000000, -1.000000000000000000 ) ) ;
#129 = CC_DESIGN_PERSON_AND_ORGANIZATION_ASSIGNMENT ( #180, #139, ( #105 ) ) ;
#130 = CLOSED_SHELL ( 'NONE', ( #93, #48, #17, #171, #209, #75, #146, #100, #224 ) ) ;
#131 = PLANE ( 'NONE',  #261 ) ;
#132 = AXIS2_PLACEMENT_3D ( 'NONE', #122, #59, #297 ) ;
#133 = EDGE_LOOP ( 'NONE', ( #178, #263, #104, #290 ) ) ;
#134 = CIRCLE ( 'NONE', #161, 25.14999999999999500 ) ;
#135 = AXIS2_PLACEMENT_3D ( 'NONE', #205, #25, #217 ) ;
#136 = VERTEX_POINT ( 'NONE', #220 ) ;
#137 = CONICAL_SURFACE ( 'NONE', #294, 25.14999999999999500, 0.7853981633974344000 ) ;
#138 = APPROVAL_STATUS ( 'not_yet_approved' ) ;
#139 = PERSON_AND_ORGANIZATION_ROLE ( 'classification_officer' ) ;
#140 = LOCAL_TIME ( 10, 16, 37.00000000000000000, #89 ) ;
#141 = DATE_AND_TIME ( #288, #106 ) ;
#142 = CC_DESIGN_DATE_AND_TIME_ASSIGNMENT ( #150, #231, ( #105 ) ) ;
#143 = ORIENTED_EDGE ( 'NONE', *, *, #238, .T. ) ;
#144 = CONICAL_SURFACE ( 'NONE', #28, 25.14999999999999500, 0.7853981633974344000 ) ;
#145 = DIRECTION ( 'NONE',  ( 0.0000000000000000000, 0.0000000000000000000, 1.000000000000000000 ) ) ;
#146 = ADVANCED_FACE ( 'NONE', ( #285 ), #98, .T. ) ;
#147 = EDGE_LOOP ( 'NONE', ( #202, #143, #85, #187 ) ) ;
#148 = DIRECTION ( 'NONE',  ( 0.0000000000000000000, 0.0000000000000000000, 1.000000000000000000 ) ) ;
#149 = VERTEX_POINT ( 'NONE', #195 ) ;
#150 = DATE_AND_TIME ( #154, #86 ) ;
#151 = AXIS2_PLACEMENT_3D ( 'NONE', #240, #271, #88 ) ;
#152 = CARTESIAN_POINT ( 'NONE',  ( -2.899999999999999900, 0.0000000000000000000, -25.14999999999999500 ) ) ;
#153 = DATE_AND_TIME ( #119, #140 ) ;
#154 = CALENDAR_DATE ( 2015, 29, 5 ) ;
#155 = LINE ( 'NONE', #95, #58 ) ;
#156 = APPROVAL ( #300, 'UNSPECIFIED' ) ;
#157 = DIRECTION ( 'NONE',  ( -1.000000000000000000, -0.0000000000000000000, -0.0000000000000000000 ) ) ;
#158 = SHAPE_DEFINITION_REPRESENTATION ( #102, #66 ) ;
#159 = ORIENTED_EDGE ( 'NONE', *, *, #289, .F. ) ;
#160 = CYLINDRICAL_SURFACE ( 'NONE', #132, 25.39999999999999900 ) ;
#161 = AXIS2_PLACEMENT_3D ( 'NONE', #26, #157, #268 ) ;
#162 = CARTESIAN_POINT ( 'NONE',  ( 0.1544935271752950800, 0.0000000000000000000, 0.0000000000000000000 ) ) ;
#163 = CARTESIAN_POINT ( 'NONE',  ( -2.899999999999999900, 0.0000000000000000000, 0.0000000000000000000 ) ) ;
#164 = VERTEX_POINT ( 'NONE', #35 ) ;
#165 = ORIENTED_EDGE ( 'NONE', *, *, #112, .T. ) ;
#166 = AXIS2_PLACEMENT_3D ( 'NONE', #30, #208, #197 ) ;
#167 = DIRECTION ( 'NONE',  ( 0.0000000000000000000, 0.0000000000000000000, 1.000000000000000000 ) ) ;
#168 = CARTESIAN_POINT ( 'NONE',  ( -112.0998635090740100, 0.0000000000000000000, 0.0000000000000000000 ) ) ;
#169 = CC_DESIGN_APPROVAL ( #156, ( #105 ) ) ;
#170 = DIRECTION ( 'NONE',  ( 0.0000000000000000000, 0.0000000000000000000, -1.000000000000000000 ) ) ;
#171 = ADVANCED_FACE ( 'NONE', ( #10 ), #160, .T. ) ;
#172 = ORIENTED_EDGE ( 'NONE', *, *, #267, .T. ) ;
#173 = PERSON ( 'UNSPECIFIED', 'UNSPECIFIED', 'UNSPECIFIED', ('UNSPECIFIED'), ('UNSPECIFIED'), ('UNSPECIFIED') ) ;
#174 = VECTOR ( 'NONE', #29, 999.9999999999998900 ) ;
#175 = AXIS2_PLACEMENT_3D ( 'NONE', #212, #96, #273 ) ;
#176 = DIRECTION ( 'NONE',  ( -1.000000000000000000, -0.0000000000000000000, -0.0000000000000000000 ) ) ;
#177 = DIRECTION ( 'NONE',  ( -1.000000000000000000, -0.0000000000000000000, -0.0000000000000000000 ) ) ;
#178 = ORIENTED_EDGE ( 'NONE', *, *, #116, .F. ) ;
#179 = CARTESIAN_POINT ( 'NONE',  ( -0.1500000000022039300, 0.0000000000000000000, 0.0000000000000000000 ) ) ;
#180 = PERSON_AND_ORGANIZATION ( #173, #120 ) ;
#181 = DIRECTION ( 'NONE',  ( -1.000000000000000000, -0.0000000000000000000, -0.0000000000000000000 ) ) ;
#182 = ORIENTED_EDGE ( 'NONE', *, *, #282, .F. ) ;
#183 = AXIS2_PLACEMENT_3D ( 'NONE', #21, #295, #251 ) ;
#184 = DIRECTION ( 'NONE',  ( -0.7808101133060212400, 0.0000000000000000000, 0.6247684106603329500 ) ) ;
#185 = EDGE_CURVE ( 'NONE', #6, #149, #259, .T. ) ;
#186 = CC_DESIGN_SECURITY_CLASSIFICATION ( #105, ( #1 ) ) ;
#187 = ORIENTED_EDGE ( 'NONE', *, *, #185, .F. ) ;
#188 = PERSON_AND_ORGANIZATION_ROLE ( 'creator' ) ;
#189 = DIRECTION ( 'NONE',  ( 0.0000000000000000000, 0.0000000000000000000, 1.000000000000000000 ) ) ;
#190 = DATE_AND_TIME ( #18, #275 ) ;
#191 = VERTEX_POINT ( 'NONE', #252 ) ;
#192 = FACE_OUTER_BOUND ( 'NONE', #292, .T. ) ;
#193 = CYLINDRICAL_SURFACE ( 'NONE', #135, 25.39999999999999900 ) ;
#194 = AXIS2_PLACEMENT_3D ( 'NONE', #179, #91, #60 ) ;
#195 = CARTESIAN_POINT ( 'NONE',  ( -0.1500000000022039300, 0.0000000000000000000, 25.39999999999999900 ) ) ;
#196 = EDGE_LOOP ( 'NONE', ( #225, #265, #165, #203 ) ) ;
#197 = DIRECTION ( 'NONE',  ( 0.0000000000000000000, 0.0000000000000000000, -1.000000000000000000 ) ) ;
#198 = EDGE_CURVE ( 'NONE', #103, #6, #258, .T. ) ;
#199 = PERSON_AND_ORGANIZATION_ROLE ( 'creator' ) ;
#200 = PRODUCT_RELATED_PRODUCT_CATEGORY ( 'detail', '', ( #82 ) ) ;
#201 = APPLICATION_PROTOCOL_DEFINITION ( 'international standard', 'config_control_design', 1994, #16 ) ;
#202 = ORIENTED_EDGE ( 'NONE', *, *, #198, .F. ) ;
#203 = ORIENTED_EDGE ( 'NONE', *, *, #277, .T. ) ;
#204 = PERSON_AND_ORGANIZATION_ROLE ( 'design_owner' ) ;
#205 = CARTESIAN_POINT ( 'NONE',  ( -2.899999999999999900, 0.0000000000000000000, 0.0000000000000000000 ) ) ;
#206 = FACE_OUTER_BOUND ( 'NONE', #196, .T. ) ;
#207 = AXIS2_PLACEMENT_3D ( 'NONE', #162, #65, #167 ) ;
#208 = DIRECTION ( 'NONE',  ( 1.000000000000000000, 0.0000000000000000000, 0.0000000000000000000 ) ) ;
#209 = ADVANCED_FACE ( 'NONE', ( #192 ), #131, .F. ) ;
#210 = DIRECTION ( 'NONE',  ( 1.000000000000000000, 0.0000000000000000000, 0.0000000000000000000 ) ) ;
#211 = APPROVAL_PERSON_ORGANIZATION ( #233, #92, #27 ) ;
#212 = CARTESIAN_POINT ( 'NONE',  ( -112.0998635090740100, 0.0000000000000000000, 0.1771804005745187300 ) ) ;
#213 = VERTEX_POINT ( 'NONE', #118 ) ;
#214 = EDGE_CURVE ( 'NONE', #149, #191, #69, .T. ) ;
#215 = DIRECTION ( 'NONE',  ( 0.0000000000000000000, 0.0000000000000000000, 1.000000000000000000 ) ) ;
#216 = DATE_AND_TIME ( #245, #50 ) ;
#217 = DIRECTION ( 'NONE',  ( 0.0000000000000000000, 0.0000000000000000000, 1.000000000000000000 ) ) ;
#218 = DIRECTION ( 'NONE',  ( -1.000000000000000000, -0.0000000000000000000, -0.0000000000000000000 ) ) ;
#219 = ORIENTED_EDGE ( 'NONE', *, *, #241, .F. ) ;
#220 = CARTESIAN_POINT ( 'NONE',  ( -2.899999999999999900, 0.0000000000000000000, -25.14999999999999500 ) ) ;
#221 = CARTESIAN_POINT ( 'NONE',  ( -0.1500000000022039300, 0.0000000000000000000, 0.0000000000000000000 ) ) ;
#222 = DIRECTION ( 'NONE',  ( -1.000000000000000000, -0.0000000000000000000, -0.0000000000000000000 ) ) ;
#223 = DIRECTION ( 'NONE',  ( 0.0000000000000000000, 0.0000000000000000000, -1.000000000000000000 ) ) ;
#224 = ADVANCED_FACE ( 'NONE', ( #278 ), #144, .T. ) ;
#225 = ORIENTED_EDGE ( 'NONE', *, *, #267, .F. ) ;
#226 = CC_DESIGN_PERSON_AND_ORGANIZATION_ASSIGNMENT ( #4, #188, ( #1 ) ) ;
#227 = ORIENTED_EDGE ( 'NONE', *, *, #64, .F. ) ;
#228 = CIRCLE ( 'NONE', #235, 25.14999999999999500 ) ;
#229 = EDGE_CURVE ( 'NONE', #213, #164, #262, .T. ) ;
#230 = EDGE_CURVE ( 'NONE', #136, #62, #228, .T. ) ;
#231 = DATE_TIME_ROLE ( 'classification_date' ) ;
#232 = ORIENTED_EDGE ( 'NONE', *, *, #241, .T. ) ;
#233 = PERSON_AND_ORGANIZATION ( #173, #120 ) ;
#234 = CARTESIAN_POINT ( 'NONE',  ( -0.1500000000022039300, 0.0000000000000000000, 0.0000000000000000000 ) ) ;
#235 = AXIS2_PLACEMENT_3D ( 'NONE', #45, #55, #20 ) ;
#236 = COORDINATED_UNIVERSAL_TIME_OFFSET ( 5, 0, .BEHIND. ) ;
#237 = AXIS2_PLACEMENT_3D ( 'NONE', #24, #210, #223 ) ;
#238 = EDGE_CURVE ( 'NONE', #103, #191, #155, .T. ) ;
#239 = EDGE_LOOP ( 'NONE', ( #283, #37, #126, #227 ) ) ;
#240 = CARTESIAN_POINT ( 'NONE',  ( -112.0998635090740100, 2.169834104352302300E-017, -0.1771804005745187300 ) ) ;
#241 = EDGE_CURVE ( 'NONE', #51, #6, #97, .T. ) ;
#242 = LINE ( 'NONE', #56, #174 ) ;
#243 = APPROVAL_DATE_TIME ( #141, #92 ) ;
#244 = EDGE_LOOP ( 'NONE', ( #182, #276, #270, #80 ) ) ;
#245 = CALENDAR_DATE ( 2015, 29, 5 ) ;
#246 = VECTOR ( 'NONE', #218, 1000.000000000000000 ) ;
#247 = AXIS2_PLACEMENT_3D ( 'NONE', #79, #177, #23 ) ;
#248 = APPLICATION_CONTEXT ( 'configuration controlled 3d designs of mechanical parts and assemblies' ) ;
#249 = FACE_OUTER_BOUND ( 'NONE', #239, .T. ) ;
#250 = CARTESIAN_POINT ( 'NONE',  ( -2.899999999999999900, 0.0000000000000000000, 0.0000000000000000000 ) ) ;
#251 = DIRECTION ( 'NONE',  ( 0.0000000000000000000, 0.0000000000000000000, 1.000000000000000000 ) ) ;
#252 = CARTESIAN_POINT ( 'NONE',  ( -0.1500000000022039300, 3.110602869834276900E-015, -25.39999999999999900 ) ) ;
#253 = AXIS2_PLACEMENT_3D ( 'NONE', #54, #34, #189 ) ;
#254 = TOROIDAL_SURFACE ( 'NONE', #71, 0.1771804005745187300, 115.0000000000000000 ) ;
#255 = VECTOR ( 'NONE', #184, 1000.000000000000000 ) ;
#256 = CC_DESIGN_APPROVAL ( #92, ( #1 ) ) ;
#257 = EDGE_LOOP ( 'NONE', ( #74, #172, #39, #107 ) ) ;
#258 = CIRCLE ( 'NONE', #207, 25.15635825690628700 ) ;
#259 = LINE ( 'NONE', #5, #255 ) ;
#260 = CARTESIAN_POINT ( 'NONE',  ( 0.1544935271753020100, 0.0000000000000000000, 25.15635825690639000 ) ) ;
#261 = AXIS2_PLACEMENT_3D ( 'NONE', #250, #87, #170 ) ;
#262 = CIRCLE ( 'NONE', #237, 25.39999999999999900 ) ;
#263 = ORIENTED_EDGE ( 'NONE', *, *, #230, .F. ) ;
#264 = APPROVAL_DATE_TIME ( #216, #40 ) ;
#265 = ORIENTED_EDGE ( 'NONE', *, *, #64, .T. ) ;
#266 = APPLICATION_PROTOCOL_DEFINITION ( 'international standard', 'config_control_design', 1994, #248 ) ;
#267 = EDGE_CURVE ( 'NONE', #191, #213, #70, .T. ) ;
#268 = DIRECTION ( 'NONE',  ( 0.0000000000000000000, 0.0000000000000000000, -1.000000000000000000 ) ) ;
#269 = DIRECTION ( 'NONE',  ( 0.0000000000000000000, 0.0000000000000000000, 1.000000000000000000 ) ) ;
#270 = ORIENTED_EDGE ( 'NONE', *, *, #229, .F. ) ;
#271 = DIRECTION ( 'NONE',  ( -0.0000000000000000000, 1.000000000000000000, 1.224646799147353200E-016 ) ) ;
#272 = EDGE_CURVE ( 'NONE', #6, #103, #298, .T. ) ;
#273 = DIRECTION ( 'NONE',  ( 0.0000000000000000000, 0.0000000000000000000, -1.000000000000000000 ) ) ;
#274 = CIRCLE ( 'NONE', #253, 25.39999999999999900 ) ;
#275 = LOCAL_TIME ( 10, 16, 37.00000000000000000, #49 ) ;
#276 = ORIENTED_EDGE ( 'NONE', *, *, #116, .T. ) ;
#277 = EDGE_CURVE ( 'NONE', #164, #213, #110, .T. ) ;
#278 = FACE_OUTER_BOUND ( 'NONE', #133, .T. ) ;
#279 = CONICAL_SURFACE ( 'NONE', #194, 25.39999999999999900, 0.6748348963709589500 ) ;
#280 = EDGE_LOOP ( 'NONE', ( #219, #68, #22 ) ) ;
#281 = UNCERTAINTY_MEASURE_WITH_UNIT (LENGTH_MEASURE( 1.000000000000000100E-005 ), #11, 'distance_accuracy_value', 'NONE');
#282 = EDGE_CURVE ( 'NONE', #62, #136, #134, .T. ) ;
#283 = ORIENTED_EDGE ( 'NONE', *, *, #238, .F. ) ;
#284 = EDGE_LOOP ( 'NONE', ( #159, #232, #9 ) ) ;
#285 = FACE_OUTER_BOUND ( 'NONE', #284, .T. ) ;
#286 = AXIS2_PLACEMENT_3D ( 'NONE', #234, #176, #215 ) ;
#287 = DIRECTION ( 'NONE',  ( -0.7808101133060212400, 7.651206343235557500E-017, -0.6247684106603329500 ) ) ;
#288 = CALENDAR_DATE ( 2015, 29, 5 ) ;
#289 = EDGE_CURVE ( 'NONE', #51, #103, #63, .T. ) ;
#290 = ORIENTED_EDGE ( 'NONE', *, *, #277, .F. ) ;
#291 = PERSON_AND_ORGANIZATION ( #173, #120 ) ;
#292 = EDGE_LOOP ( 'NONE', ( #57, #67 ) ) ;
#293 = PERSON_AND_ORGANIZATION ( #173, #120 ) ;
#294 = AXIS2_PLACEMENT_3D ( 'NONE', #44, #72, #128 ) ;
#295 = DIRECTION ( 'NONE',  ( 1.000000000000000000, 0.0000000000000000000, 0.0000000000000000000 ) ) ;
#296 = APPROVAL_ROLE ( '' ) ;
#297 = DIRECTION ( 'NONE',  ( 0.0000000000000000000, 0.0000000000000000000, 1.000000000000000000 ) ) ;
#298 = CIRCLE ( 'NONE', #183, 25.15635825690628700 ) ;
#299 = VECTOR ( 'NONE', #90, 999.9999999999998900 ) ;
#300 = APPROVAL_STATUS ( 'not_yet_approved' ) ;
#301 = DIRECTION ( 'NONE',  ( 1.000000000000000000, 0.0000000000000000000, 0.0000000000000000000 ) ) ;
ENDSEC;
END-ISO-10303-21;
