ISO-10303-21;
HEADER;
FILE_DESCRIPTION (( 'STEP AP203' ),
    '1' );
FILE_NAME ('Web Model 46639_46644.step',
    '2017-04-12T15:55:07',
    ( '' ),
    ( '' ),
    'SwSTEP 2.0',
    'SolidWorks 2016',
    '' );
FILE_SCHEMA (( 'CONFIG_CONTROL_DESIGN' ));
ENDSEC;

DATA;
#1 = COORDINATED_UNIVERSAL_TIME_OFFSET ( 5, 0, .BEHIND. ) ;
#2 = PERSON_AND_ORGANIZATION_ROLE ( 'creator' ) ;
#3 = DATE_AND_TIME ( #49, #188 ) ;
#4 = PRODUCT_DEFINITION_SHAPE ( 'NONE', 'NONE',  #224 ) ;
#5 = ORIENTED_EDGE ( 'NONE', *, *, #90, .T. ) ;
#6 = LINE ( 'NONE', #178, #96 ) ;
#7 = VECTOR ( 'NONE', #136, 1000.000000000000000 ) ;
#8 = VECTOR ( 'NONE', #170, 1000.000000000000000 ) ;
#9 = EDGE_CURVE ( 'NONE', #27, #87, #107, .T. ) ;
#10 = MECHANICAL_CONTEXT ( 'NONE', #126, 'mechanical' ) ;
#11 = CC_DESIGN_APPROVAL ( #30, ( #224 ) ) ;
#12 = CARTESIAN_POINT ( 'NONE',  ( -37.50000000000000000, -37.50000000000000000, 0.5000000000000000000 ) ) ;
#13 = CARTESIAN_POINT ( 'NONE',  ( -37.50000000000000000, -37.50000000000000000, -0.5000000000000000000 ) ) ;
#14 = ORIENTED_EDGE ( 'NONE', *, *, #20, .F. ) ;
#15 = PLANE ( 'NONE',  #86 ) ;
#16 = ORIENTED_EDGE ( 'NONE', *, *, #186, .F. ) ;
#17 = DIRECTION ( 'NONE',  ( 0.0000000000000000000, -0.0000000000000000000, -1.000000000000000000 ) ) ;
#18 = PERSON_AND_ORGANIZATION ( #40, #113 ) ;
#19 = VECTOR ( 'NONE', #189, 1000.000000000000000 ) ;
#20 = EDGE_CURVE ( 'NONE', #235, #87, #46, .T. ) ;
#21 = LINE ( 'NONE', #104, #135 ) ;
#22 = CC_DESIGN_PERSON_AND_ORGANIZATION_ASSIGNMENT ( #69, #79, ( #224 ) ) ;
#23 = VECTOR ( 'NONE', #171, 1000.000000000000000 ) ;
#24 = ORIENTED_EDGE ( 'NONE', *, *, #151, .T. ) ;
#25 = PERSON_AND_ORGANIZATION ( #40, #113 ) ;
#26 = LOCAL_TIME ( 11, 55, 7.000000000000000000, #226 ) ;
#27 = VERTEX_POINT ( 'NONE', #195 ) ;
#28 = CALENDAR_DATE ( 2017, 12, 4 ) ;
#29 = ORIENTED_EDGE ( 'NONE', *, *, #90, .F. ) ;
#30 = APPROVAL ( #112, 'UNSPECIFIED' ) ;
#31 = ADVANCED_FACE ( 'NONE', ( #191 ), #203, .F. ) ;
#32 = ADVANCED_FACE ( 'NONE', ( #198 ), #48, .F. ) ;
#33 = APPLICATION_PROTOCOL_DEFINITION ( 'international standard', 'config_control_design', 1994, #115 ) ;
#34 = LOCAL_TIME ( 11, 55, 7.000000000000000000, #1 ) ;
#35 =( LENGTH_UNIT ( ) NAMED_UNIT ( * ) SI_UNIT ( .MILLI., .METRE. ) );
#36 = CARTESIAN_POINT ( 'NONE',  ( 0.0000000000000000000, 0.0000000000000000000, 0.0000000000000000000 ) ) ;
#37 = VECTOR ( 'NONE', #72, 1000.000000000000000 ) ;
#38 = DIRECTION ( 'NONE',  ( -1.000000000000000000, -0.0000000000000000000, -0.0000000000000000000 ) ) ;
#39 = LINE ( 'NONE', #118, #98 ) ;
#40 = PERSON ( 'UNSPECIFIED', 'UNSPECIFIED', 'UNSPECIFIED', ('UNSPECIFIED'), ('UNSPECIFIED'), ('UNSPECIFIED') ) ;
#41 = PERSON_AND_ORGANIZATION ( #40, #113 ) ;
#42 = DIRECTION ( 'NONE',  ( 1.000000000000000000, 0.0000000000000000000, 0.0000000000000000000 ) ) ;
#43 = VECTOR ( 'NONE', #217, 1000.000000000000000 ) ;
#44 = EDGE_LOOP ( 'NONE', ( #99, #133, #80, #174 ) ) ;
#45 = DIRECTION ( 'NONE',  ( -0.0000000000000000000, 0.0000000000000000000, 1.000000000000000000 ) ) ;
#46 = LINE ( 'NONE', #220, #211 ) ;
#47 = CARTESIAN_POINT ( 'NONE',  ( -37.50000000000000000, 37.50000000000000000, 0.5000000000000000000 ) ) ;
#48 = PLANE ( 'NONE',  #216 ) ;
#49 = CALENDAR_DATE ( 2017, 12, 4 ) ;
#50 = LOCAL_TIME ( 11, 55, 7.000000000000000000, #102 ) ;
#51 = FACE_OUTER_BOUND ( 'NONE', #65, .T. ) ;
#52 = CARTESIAN_POINT ( 'NONE',  ( 37.50000000000000000, 37.50000000000000000, 0.5000000000000000000 ) ) ;
#53 = AXIS2_PLACEMENT_3D ( 'NONE', #47, #158, #17 ) ;
#54 = LINE ( 'NONE', #13, #7 ) ;
#55 = APPROVAL_PERSON_ORGANIZATION ( #149, #83, #74 ) ;
#56 = PERSON_AND_ORGANIZATION ( #40, #113 ) ;
#57 = ADVANCED_FACE ( 'NONE', ( #51 ), #15, .F. ) ;
#58 = DIRECTION ( 'NONE',  ( -0.0000000000000000000, 0.0000000000000000000, -1.000000000000000000 ) ) ;
#59 = APPROVAL_DATE_TIME ( #85, #184 ) ;
#60 = ADVANCED_FACE ( 'NONE', ( #192 ), #177, .F. ) ;
#61 = CARTESIAN_POINT ( 'NONE',  ( 37.50000000000000000, 37.50000000000000000, 0.5000000000000000000 ) ) ;
#62 = CARTESIAN_POINT ( 'NONE',  ( -37.50000000000000000, 37.50000000000000000, 0.5000000000000000000 ) ) ;
#63 = PERSON_AND_ORGANIZATION ( #40, #113 ) ;
#64 = DATE_AND_TIME ( #97, #93 ) ;
#65 = EDGE_LOOP ( 'NONE', ( #165, #29, #73, #172 ) ) ;
#66 = LINE ( 'NONE', #212, #43 ) ;
#67 = SHAPE_DEFINITION_REPRESENTATION ( #4, #175 ) ;
#68 =( NAMED_UNIT ( * ) PLANE_ANGLE_UNIT ( ) SI_UNIT ( $, .RADIAN. ) );
#69 = PERSON_AND_ORGANIZATION ( #40, #113 ) ;
#70 = PRODUCT_DEFINITION_FORMATION_WITH_SPECIFIED_SOURCE ( 'ANY', '', #166, .NOT_KNOWN. ) ;
#71 = ORIENTED_EDGE ( 'NONE', *, *, #122, .T. ) ;
#72 = DIRECTION ( 'NONE',  ( -0.0000000000000000000, 1.000000000000000000, -0.0000000000000000000 ) ) ;
#73 = ORIENTED_EDGE ( 'NONE', *, *, #122, .F. ) ;
#74 = APPROVAL_ROLE ( '' ) ;
#75 = DIRECTION ( 'NONE',  ( 1.000000000000000000, 0.0000000000000000000, 0.0000000000000000000 ) ) ;
#76 = ORIENTED_EDGE ( 'NONE', *, *, #9, .T. ) ;
#77 = ORIENTED_EDGE ( 'NONE', *, *, #179, .T. ) ;
#78 = CARTESIAN_POINT ( 'NONE',  ( -37.50000000000000000, 37.50000000000000000, 0.5000000000000000000 ) ) ;
#79 = PERSON_AND_ORGANIZATION_ROLE ( 'creator' ) ;
#80 = ORIENTED_EDGE ( 'NONE', *, *, #197, .F. ) ;
#81 = EDGE_CURVE ( 'NONE', #87, #167, #110, .T. ) ;
#82 = DIRECTION ( 'NONE',  ( -0.0000000000000000000, -0.0000000000000000000, -1.000000000000000000 ) ) ;
#83 = APPROVAL ( #200, 'UNSPECIFIED' ) ;
#84 = APPROVAL_ROLE ( '' ) ;
#85 = DATE_AND_TIME ( #114, #50 ) ;
#86 = AXIS2_PLACEMENT_3D ( 'NONE', #147, #91, #58 ) ;
#87 = VERTEX_POINT ( 'NONE', #218 ) ;
#88 = ORIENTED_EDGE ( 'NONE', *, *, #186, .T. ) ;
#89 = EDGE_LOOP ( 'NONE', ( #24, #222, #231, #5 ) ) ;
#90 = EDGE_CURVE ( 'NONE', #228, #180, #6, .T. ) ;
#91 = DIRECTION ( 'NONE',  ( 1.000000000000000000, 0.0000000000000000000, -0.0000000000000000000 ) ) ;
#92 = COORDINATED_UNIVERSAL_TIME_OFFSET ( 5, 0, .BEHIND. ) ;
#93 = LOCAL_TIME ( 11, 55, 7.000000000000000000, #92 ) ;
#94 = CC_DESIGN_APPROVAL ( #83, ( #70 ) ) ;
#95 = CALENDAR_DATE ( 2017, 12, 4 ) ;
#96 = VECTOR ( 'NONE', #154, 1000.000000000000000 ) ;
#97 = CALENDAR_DATE ( 2017, 12, 4 ) ;
#98 = VECTOR ( 'NONE', #82, 1000.000000000000000 ) ;
#99 = ORIENTED_EDGE ( 'NONE', *, *, #9, .F. ) ;
#100 = DIRECTION ( 'NONE',  ( -0.0000000000000000000, -0.0000000000000000000, -1.000000000000000000 ) ) ;
#101 = PERSON_AND_ORGANIZATION_ROLE ( 'classification_officer' ) ;
#102 = COORDINATED_UNIVERSAL_TIME_OFFSET ( 5, 0, .BEHIND. ) ;
#103 = LINE ( 'NONE', #78, #19 ) ;
#104 = CARTESIAN_POINT ( 'NONE',  ( -37.50000000000000000, -37.50000000000000000, 0.5000000000000000000 ) ) ;
#105 = EDGE_CURVE ( 'NONE', #132, #167, #103, .T. ) ;
#106 = CLOSED_SHELL ( 'NONE', ( #162, #60, #57, #31, #119, #32 ) ) ;
#107 = LINE ( 'NONE', #145, #37 ) ;
#108 = CC_DESIGN_PERSON_AND_ORGANIZATION_ASSIGNMENT ( #25, #2, ( #70 ) ) ;
#109 = COORDINATED_UNIVERSAL_TIME_OFFSET ( 5, 0, .BEHIND. ) ;
#110 = LINE ( 'NONE', #185, #232 ) ;
#111 = CARTESIAN_POINT ( 'NONE',  ( 0.0000000000000000000, 0.0000000000000000000, 0.5000000000000000000 ) ) ;
#112 = APPROVAL_STATUS ( 'not_yet_approved' ) ;
#113 = ORGANIZATION ( 'UNSPECIFIED', 'UNSPECIFIED', '' ) ;
#114 = CALENDAR_DATE ( 2017, 12, 4 ) ;
#115 = APPLICATION_CONTEXT ( 'configuration controlled 3d designs of mechanical parts and assemblies' ) ;
#116 = CC_DESIGN_PERSON_AND_ORGANIZATION_ASSIGNMENT ( #237, #120, ( #166 ) ) ;
#117 = SECURITY_CLASSIFICATION_LEVEL ( 'unclassified' ) ;
#118 = CARTESIAN_POINT ( 'NONE',  ( 37.50000000000000000, -37.50000000000000000, 0.5000000000000000000 ) ) ;
#119 = ADVANCED_FACE ( 'NONE', ( #193 ), #129, .T. ) ;
#120 = PERSON_AND_ORGANIZATION_ROLE ( 'design_owner' ) ;
#121 = APPROVAL_DATE_TIME ( #142, #83 ) ;
#122 = EDGE_CURVE ( 'NONE', #132, #228, #141, .T. ) ;
#123 = ORIENTED_EDGE ( 'NONE', *, *, #20, .T. ) ;
#124 = DIRECTION ( 'NONE',  ( 1.000000000000000000, 0.0000000000000000000, 0.0000000000000000000 ) ) ;
#125 = DATE_TIME_ROLE ( 'classification_date' ) ;
#126 = APPLICATION_CONTEXT ( 'configuration controlled 3d designs of mechanical parts and assemblies' ) ;
#127 = APPROVAL_PERSON_ORGANIZATION ( #56, #184, #84 ) ;
#128 = CC_DESIGN_PERSON_AND_ORGANIZATION_ASSIGNMENT ( #63, #169, ( #70 ) ) ;
#129 = PLANE ( 'NONE',  #209 ) ;
#130 = CARTESIAN_POINT ( 'NONE',  ( -37.50000000000000000, 37.50000000000000000, -0.5000000000000000000 ) ) ;
#131 = ORIENTED_EDGE ( 'NONE', *, *, #105, .F. ) ;
#132 = VERTEX_POINT ( 'NONE', #157 ) ;
#133 = ORIENTED_EDGE ( 'NONE', *, *, #151, .F. ) ;
#134 = AXIS2_PLACEMENT_3D ( 'NONE', #36, #182, #159 ) ;
#135 = VECTOR ( 'NONE', #42, 1000.000000000000000 ) ;
#136 = DIRECTION ( 'NONE',  ( 1.000000000000000000, 0.0000000000000000000, 0.0000000000000000000 ) ) ;
#137 = APPROVAL_DATE_TIME ( #64, #30 ) ;
#138 = EDGE_CURVE ( 'NONE', #235, #132, #176, .T. ) ;
#139 = VERTEX_POINT ( 'NONE', #225 ) ;
#140 = MANIFOLD_SOLID_BREP ( 'Boss-Extrude1', #106 ) ;
#141 = LINE ( 'NONE', #62, #23 ) ;
#142 = DATE_AND_TIME ( #95, #34 ) ;
#143 = CARTESIAN_POINT ( 'NONE',  ( -37.50000000000000000, -37.50000000000000000, 0.5000000000000000000 ) ) ;
#144 = SECURITY_CLASSIFICATION ( '', '', #117 ) ;
#145 = CARTESIAN_POINT ( 'NONE',  ( 37.50000000000000000, 37.50000000000000000, -0.5000000000000000000 ) ) ;
#146 = DIRECTION ( 'NONE',  ( 0.0000000000000000000, 0.0000000000000000000, 1.000000000000000000 ) ) ;
#147 = CARTESIAN_POINT ( 'NONE',  ( -37.50000000000000000, 37.50000000000000000, 0.5000000000000000000 ) ) ;
#148 = CARTESIAN_POINT ( 'NONE',  ( 37.50000000000000000, 37.50000000000000000, 0.5000000000000000000 ) ) ;
#149 = PERSON_AND_ORGANIZATION ( #40, #113 ) ;
#150 = EDGE_LOOP ( 'NONE', ( #221, #131, #187, #123 ) ) ;
#151 = EDGE_CURVE ( 'NONE', #180, #27, #54, .T. ) ;
#152 = EDGE_LOOP ( 'NONE', ( #76, #14, #16, #77 ) ) ;
#153 = CC_DESIGN_PERSON_AND_ORGANIZATION_ASSIGNMENT ( #18, #101, ( #144 ) ) ;
#154 = DIRECTION ( 'NONE',  ( -0.0000000000000000000, -0.0000000000000000000, -1.000000000000000000 ) ) ;
#155 = VECTOR ( 'NONE', #38, 1000.000000000000000 ) ;
#156 = DIRECTION ( 'NONE',  ( -1.000000000000000000, -0.0000000000000000000, -0.0000000000000000000 ) ) ;
#157 = CARTESIAN_POINT ( 'NONE',  ( -37.50000000000000000, 37.50000000000000000, 0.5000000000000000000 ) ) ;
#158 = DIRECTION ( 'NONE',  ( 0.0000000000000000000, -1.000000000000000000, 0.0000000000000000000 ) ) ;
#159 = DIRECTION ( 'NONE',  ( 1.000000000000000000, 0.0000000000000000000, 0.0000000000000000000 ) ) ;
#160 = APPROVAL_PERSON_ORGANIZATION ( #41, #30, #204 ) ;
#161 = APPROVAL_STATUS ( 'not_yet_approved' ) ;
#162 = ADVANCED_FACE ( 'NONE', ( #201 ), #210, .F. ) ;
#163 = APPLICATION_PROTOCOL_DEFINITION ( 'international standard', 'config_control_design', 1994, #126 ) ;
#164 = EDGE_CURVE ( 'NONE', #228, #139, #21, .T. ) ;
#165 = ORIENTED_EDGE ( 'NONE', *, *, #197, .T. ) ;
#166 = PRODUCT ( 'Web Model 46639_46644', 'Web Model 46639_46644', '', ( #10 ) ) ;
#167 = VERTEX_POINT ( 'NONE', #130 ) ;
#168 = CC_DESIGN_DATE_AND_TIME_ASSIGNMENT ( #230, #125, ( #144 ) ) ;
#169 = PERSON_AND_ORGANIZATION_ROLE ( 'design_supplier' ) ;
#170 = DIRECTION ( 'NONE',  ( -0.0000000000000000000, 1.000000000000000000, -0.0000000000000000000 ) ) ;
#171 = DIRECTION ( 'NONE',  ( 0.0000000000000000000, -1.000000000000000000, 0.0000000000000000000 ) ) ;
#172 = ORIENTED_EDGE ( 'NONE', *, *, #105, .T. ) ;
#173 = ORIENTED_EDGE ( 'NONE', *, *, #164, .T. ) ;
#174 = ORIENTED_EDGE ( 'NONE', *, *, #81, .F. ) ;
#175 = ADVANCED_BREP_SHAPE_REPRESENTATION ( 'Web Model 46639_46644', ( #140, #134 ), #219 ) ;
#176 = LINE ( 'NONE', #236, #155 ) ;
#177 = PLANE ( 'NONE',  #53 ) ;
#178 = CARTESIAN_POINT ( 'NONE',  ( -37.50000000000000000, -37.50000000000000000, 0.5000000000000000000 ) ) ;
#179 = EDGE_CURVE ( 'NONE', #139, #27, #39, .T. ) ;
#180 = VERTEX_POINT ( 'NONE', #181 ) ;
#181 = CARTESIAN_POINT ( 'NONE',  ( -37.50000000000000000, -37.50000000000000000, -0.5000000000000000000 ) ) ;
#182 = DIRECTION ( 'NONE',  ( 0.0000000000000000000, 0.0000000000000000000, 1.000000000000000000 ) ) ;
#183 = DIRECTION ( 'NONE',  ( -1.000000000000000000, 0.0000000000000000000, 0.0000000000000000000 ) ) ;
#184 = APPROVAL ( #161, 'UNSPECIFIED' ) ;
#185 = CARTESIAN_POINT ( 'NONE',  ( -37.50000000000000000, 37.50000000000000000, -0.5000000000000000000 ) ) ;
#186 = EDGE_CURVE ( 'NONE', #139, #235, #223, .T. ) ;
#187 = ORIENTED_EDGE ( 'NONE', *, *, #138, .F. ) ;
#188 = LOCAL_TIME ( 11, 55, 7.000000000000000000, #109 ) ;
#189 = DIRECTION ( 'NONE',  ( -0.0000000000000000000, -0.0000000000000000000, -1.000000000000000000 ) ) ;
#190 = AXIS2_PLACEMENT_3D ( 'NONE', #148, #183, #146 ) ;
#191 = FACE_OUTER_BOUND ( 'NONE', #89, .T. ) ;
#192 = FACE_OUTER_BOUND ( 'NONE', #150, .T. ) ;
#193 = FACE_OUTER_BOUND ( 'NONE', #205, .T. ) ;
#194 = CC_DESIGN_APPROVAL ( #184, ( #144 ) ) ;
#195 = CARTESIAN_POINT ( 'NONE',  ( 37.50000000000000000, -37.50000000000000000, -0.5000000000000000000 ) ) ;
#196 = DIRECTION ( 'NONE',  ( 0.0000000000000000000, 1.000000000000000000, 0.0000000000000000000 ) ) ;
#197 = EDGE_CURVE ( 'NONE', #167, #180, #66, .T. ) ;
#198 = FACE_OUTER_BOUND ( 'NONE', #44, .T. ) ;
#199 = AXIS2_PLACEMENT_3D ( 'NONE', #143, #196, #202 ) ;
#200 = APPROVAL_STATUS ( 'not_yet_approved' ) ;
#201 = FACE_OUTER_BOUND ( 'NONE', #152, .T. ) ;
#202 = DIRECTION ( 'NONE',  ( 0.0000000000000000000, -0.0000000000000000000, 1.000000000000000000 ) ) ;
#203 = PLANE ( 'NONE',  #199 ) ;
#204 = APPROVAL_ROLE ( '' ) ;
#205 = EDGE_LOOP ( 'NONE', ( #88, #227, #71, #173 ) ) ;
#206 = DATE_TIME_ROLE ( 'creation_date' ) ;
#207 = CC_DESIGN_SECURITY_CLASSIFICATION ( #144, ( #70 ) ) ;
#208 = CARTESIAN_POINT ( 'NONE',  ( 0.0000000000000000000, 0.0000000000000000000, -0.5000000000000000000 ) ) ;
#209 = AXIS2_PLACEMENT_3D ( 'NONE', #111, #234, #75 ) ;
#210 = PLANE ( 'NONE',  #190 ) ;
#211 = VECTOR ( 'NONE', #100, 1000.000000000000000 ) ;
#212 = CARTESIAN_POINT ( 'NONE',  ( -37.50000000000000000, 37.50000000000000000, -0.5000000000000000000 ) ) ;
#213 = UNCERTAINTY_MEASURE_WITH_UNIT (LENGTH_MEASURE( 1.000000000000000100E-005 ), #35, 'distance_accuracy_value', 'NONE');
#214 =( NAMED_UNIT ( * ) SI_UNIT ( $, .STERADIAN. ) SOLID_ANGLE_UNIT ( ) );
#215 = PRODUCT_RELATED_PRODUCT_CATEGORY ( 'detail', '', ( #166 ) ) ;
#216 = AXIS2_PLACEMENT_3D ( 'NONE', #208, #45, #124 ) ;
#217 = DIRECTION ( 'NONE',  ( 0.0000000000000000000, -1.000000000000000000, 0.0000000000000000000 ) ) ;
#218 = CARTESIAN_POINT ( 'NONE',  ( 37.50000000000000000, 37.50000000000000000, -0.5000000000000000000 ) ) ;
#219 =( GEOMETRIC_REPRESENTATION_CONTEXT ( 3 ) GLOBAL_UNCERTAINTY_ASSIGNED_CONTEXT ( ( #213 ) ) GLOBAL_UNIT_ASSIGNED_CONTEXT ( ( #35, #68, #214 ) ) REPRESENTATION_CONTEXT ( 'NONE', 'WORKASPACE' ) );
#220 = CARTESIAN_POINT ( 'NONE',  ( 37.50000000000000000, 37.50000000000000000, 0.5000000000000000000 ) ) ;
#221 = ORIENTED_EDGE ( 'NONE', *, *, #81, .T. ) ;
#222 = ORIENTED_EDGE ( 'NONE', *, *, #179, .F. ) ;
#223 = LINE ( 'NONE', #52, #8 ) ;
#224 = PRODUCT_DEFINITION ( 'UNKNOWN', '', #70, #229 ) ;
#225 = CARTESIAN_POINT ( 'NONE',  ( 37.50000000000000000, -37.50000000000000000, 0.5000000000000000000 ) ) ;
#226 = COORDINATED_UNIVERSAL_TIME_OFFSET ( 5, 0, .BEHIND. ) ;
#227 = ORIENTED_EDGE ( 'NONE', *, *, #138, .T. ) ;
#228 = VERTEX_POINT ( 'NONE', #12 ) ;
#229 = DESIGN_CONTEXT ( 'detailed design', #115, 'design' ) ;
#230 = DATE_AND_TIME ( #28, #26 ) ;
#231 = ORIENTED_EDGE ( 'NONE', *, *, #164, .F. ) ;
#232 = VECTOR ( 'NONE', #156, 1000.000000000000000 ) ;
#233 = CC_DESIGN_DATE_AND_TIME_ASSIGNMENT ( #3, #206, ( #224 ) ) ;
#234 = DIRECTION ( 'NONE',  ( -0.0000000000000000000, 0.0000000000000000000, 1.000000000000000000 ) ) ;
#235 = VERTEX_POINT ( 'NONE', #61 ) ;
#236 = CARTESIAN_POINT ( 'NONE',  ( -37.50000000000000000, 37.50000000000000000, 0.5000000000000000000 ) ) ;
#237 = PERSON_AND_ORGANIZATION ( #40, #113 ) ;
ENDSEC;
END-ISO-10303-21;
