ISO-10303-21;
HEADER;
FILE_DESCRIPTION (( 'STEP AP214' ),
    '1' );
FILE_NAME ('CTN002721.STEP',
    '2016-07-25T01:40:59',
    ( '' ),
    ( '' ),
    'SwSTEP 2.0',
    'SolidWorks 2016',
    '' );
FILE_SCHEMA (( 'AUTOMOTIVE_DESIGN' ));
ENDSEC;

DATA;
#1 =( NAMED_UNIT ( * ) SI_UNIT ( $, .STERADIAN. ) SOLID_ANGLE_UNIT ( ) );
#2 = MECHANICAL_DESIGN_GEOMETRIC_PRESENTATION_REPRESENTATION (  '', ( #137 ), #260 ) ;
#3 = FACE_OUTER_BOUND ( 'NONE', #20, .T. ) ;
#4 = UNCERTAINTY_MEASURE_WITH_UNIT (LENGTH_MEASURE( 1.000000000000000100E-005 ), #38, 'distance_accuracy_value', 'NONE');
#5 = MECHANICAL_DESIGN_GEOMETRIC_PRESENTATION_REPRESENTATION (  '', ( #86 ), #189 ) ;
#6 =( NAMED_UNIT ( * ) PLANE_ANGLE_UNIT ( ) SI_UNIT ( $, .RADIAN. ) );
#7 = AXIS2_PLACEMENT_3D ( 'NONE', #146, #280, #125 ) ;
#8 = ORIENTED_EDGE ( 'NONE', *, *, #113, .T. ) ;
#9 = PRESENTATION_STYLE_ASSIGNMENT (( #105 ) ) ;
#10 = CARTESIAN_POINT ( 'NONE',  ( 3.499999999999999600, 0.4000000000000000200, -3.500000000000000000 ) ) ;
#11 = DIRECTION ( 'NONE',  ( -0.0000000000000000000, -1.000000000000000000, -0.0000000000000000000 ) ) ;
#12 = PLANE ( 'NONE',  #249 ) ;
#13 = VECTOR ( 'NONE', #36, 1000.000000000000000 ) ;
#14 = FILL_AREA_STYLE_COLOUR ( '', #184 ) ;
#15 = EDGE_CURVE ( 'NONE', #106, #72, #233, .T. ) ;
#16 = DIRECTION ( 'NONE',  ( -1.000000000000000000, -0.0000000000000000000, -0.0000000000000000000 ) ) ;
#17 = CARTESIAN_POINT ( 'NONE',  ( -3.499999999999999600, 0.4000000000000000200, -3.500000000000000000 ) ) ;
#18 = ORIENTED_EDGE ( 'NONE', *, *, #104, .F. ) ;
#19 = CARTESIAN_POINT ( 'NONE',  ( -3.499999999999999600, 0.0000000000000000000, -3.500000000000000000 ) ) ;
#20 = EDGE_LOOP ( 'NONE', ( #278, #101, #161, #251 ) ) ;
#21 = DIRECTION ( 'NONE',  ( 1.000000000000000000, 0.0000000000000000000, 0.0000000000000000000 ) ) ;
#22 = SURFACE_STYLE_FILL_AREA ( #223 ) ;
#23 = STYLED_ITEM ( 'NONE', ( #9 ), #250 ) ;
#24 = ORIENTED_EDGE ( 'NONE', *, *, #142, .F. ) ;
#25 = COLOUR_RGB ( '',1.000000000000000000, 1.000000000000000000, 1.000000000000000000 ) ;
#26 = VERTEX_POINT ( 'NONE', #290 ) ;
#27 = PRESENTATION_LAYER_ASSIGNMENT (  '', '', ( #289 ) ) ;
#28 = PRESENTATION_STYLE_ASSIGNMENT (( #151 ) ) ;
#29 = DIRECTION ( 'NONE',  ( 6.195440985631452900E-017, 0.0000000000000000000, 1.000000000000000000 ) ) ;
#30 = COLOUR_RGB ( '',1.000000000000000000, 1.000000000000000000, 1.000000000000000000 ) ;
#31 =( NAMED_UNIT ( * ) SI_UNIT ( $, .STERADIAN. ) SOLID_ANGLE_UNIT ( ) );
#32 = ORIENTED_EDGE ( 'NONE', *, *, #15, .T. ) ;
#33 = DIRECTION ( 'NONE',  ( -0.0000000000000000000, -1.000000000000000000, -0.0000000000000000000 ) ) ;
#34 = CARTESIAN_POINT ( 'NONE',  ( -3.499999999999999100, 0.4000000000000000200, 3.500000000000000900 ) ) ;
#35 = CARTESIAN_POINT ( 'NONE',  ( -3.499999999999999600, 0.4000000000000000200, -3.500000000000000000 ) ) ;
#36 = DIRECTION ( 'NONE',  ( -6.195440985631454100E-017, -0.0000000000000000000, -1.000000000000000000 ) ) ;
#37 = MECHANICAL_DESIGN_GEOMETRIC_PRESENTATION_REPRESENTATION (  '', ( #289 ), #49 ) ;
#38 =( LENGTH_UNIT ( ) NAMED_UNIT ( * ) SI_UNIT ( .MILLI., .METRE. ) );
#39 =( NAMED_UNIT ( * ) PLANE_ANGLE_UNIT ( ) SI_UNIT ( $, .RADIAN. ) );
#40 = COLOUR_RGB ( '',1.000000000000000000, 1.000000000000000000, 1.000000000000000000 ) ;
#41 = CLOSED_SHELL ( 'NONE', ( #277, #279, #250, #68, #141, #44 ) ) ;
#42 = VERTEX_POINT ( 'NONE', #272 ) ;
#43 = EDGE_CURVE ( 'NONE', #166, #50, #174, .T. ) ;
#44 = ADVANCED_FACE ( 'NONE', ( #201 ), #226, .F. ) ;
#45 = MECHANICAL_DESIGN_GEOMETRIC_PRESENTATION_REPRESENTATION (  '', ( #253 ), #95 ) ;
#46 = COLOUR_RGB ( '',1.000000000000000000, 1.000000000000000000, 1.000000000000000000 ) ;
#47 = PLANE ( 'NONE',  #222 ) ;
#48 = FILL_AREA_STYLE ('',( #200 ) ) ;
#49 =( GEOMETRIC_REPRESENTATION_CONTEXT ( 3 ) GLOBAL_UNCERTAINTY_ASSIGNED_CONTEXT ( ( #4 ) ) GLOBAL_UNIT_ASSIGNED_CONTEXT ( ( #38, #100, #75 ) ) REPRESENTATION_CONTEXT ( 'NONE', 'WORKASPACE' ) );
#50 = VERTEX_POINT ( 'NONE', #135 ) ;
#51 = UNCERTAINTY_MEASURE_WITH_UNIT (LENGTH_MEASURE( 1.000000000000000100E-005 ), #73, 'distance_accuracy_value', 'NONE');
#52 = FILL_AREA_STYLE ('',( #259 ) ) ;
#53 = FACE_OUTER_BOUND ( 'NONE', #268, .T. ) ;
#54 = PLANE ( 'NONE',  #77 ) ;
#55 = DIRECTION ( 'NONE',  ( 0.0000000000000000000, -0.0000000000000000000, 1.000000000000000000 ) ) ;
#56 = VECTOR ( 'NONE', #255, 1000.000000000000000 ) ;
#57 = FILL_AREA_STYLE_COLOUR ( '', #186 ) ;
#58 = SURFACE_SIDE_STYLE ('',( #92 ) ) ;
#59 = FILL_AREA_STYLE ('',( #85 ) ) ;
#60 = SURFACE_SIDE_STYLE ('',( #126 ) ) ;
#61 = LINE ( 'NONE', #195, #128 ) ;
#62 = SURFACE_STYLE_USAGE ( .BOTH. , #228 ) ;
#63 = EDGE_CURVE ( 'NONE', #50, #69, #225, .T. ) ;
#64 = PRESENTATION_LAYER_ASSIGNMENT (  '', '', ( #172 ) ) ;
#65 = DIRECTION ( 'NONE',  ( -1.000000000000000000, 0.0000000000000000000, 1.239088197126291100E-016 ) ) ;
#66 = PRESENTATION_STYLE_ASSIGNMENT (( #243 ) ) ;
#67 = PRODUCT_DEFINITION_FORMATION_WITH_SPECIFIED_SOURCE ( 'ANY', '', #71, .NOT_KNOWN. ) ;
#68 = ADVANCED_FACE ( 'NONE', ( #269 ), #47, .F. ) ;
#69 = VERTEX_POINT ( 'NONE', #98 ) ;
#70 = PRESENTATION_LAYER_ASSIGNMENT (  '', '', ( #110 ) ) ;
#71 = PRODUCT ( 'CTN002721', 'CTN002721', '', ( #138 ) ) ;
#72 = VERTEX_POINT ( 'NONE', #270 ) ;
#73 =( LENGTH_UNIT ( ) NAMED_UNIT ( * ) SI_UNIT ( .MILLI., .METRE. ) );
#74 = UNCERTAINTY_MEASURE_WITH_UNIT (LENGTH_MEASURE( 1.000000000000000100E-005 ), #264, 'distance_accuracy_value', 'NONE');
#75 =( NAMED_UNIT ( * ) SI_UNIT ( $, .STERADIAN. ) SOLID_ANGLE_UNIT ( ) );
#76 =( NAMED_UNIT ( * ) PLANE_ANGLE_UNIT ( ) SI_UNIT ( $, .RADIAN. ) );
#77 = AXIS2_PLACEMENT_3D ( 'NONE', #216, #266, #286 ) ;
#78 = PRODUCT_RELATED_PRODUCT_CATEGORY ( 'part', '', ( #71 ) ) ;
#79 = DIRECTION ( 'NONE',  ( -0.0000000000000000000, 1.000000000000000000, 0.0000000000000000000 ) ) ;
#80 = SURFACE_STYLE_USAGE ( .BOTH. , #218 ) ;
#81 = SURFACE_SIDE_STYLE ('',( #22 ) ) ;
#82 = PRESENTATION_STYLE_ASSIGNMENT (( #80 ) ) ;
#83 = SURFACE_STYLE_USAGE ( .BOTH. , #58 ) ;
#84 = EDGE_LOOP ( 'NONE', ( #213, #99, #236, #219 ) ) ;
#85 = FILL_AREA_STYLE_COLOUR ( '', #193 ) ;
#86 = STYLED_ITEM ( 'NONE', ( #28 ), #141 ) ;
#87 = APPLICATION_PROTOCOL_DEFINITION ( 'draft international standard', 'automotive_design', 1998, #115 ) ;
#88 = FILL_AREA_STYLE ('',( #14 ) ) ;
#89 = UNCERTAINTY_MEASURE_WITH_UNIT (LENGTH_MEASURE( 1.000000000000000100E-005 ), #103, 'distance_accuracy_value', 'NONE');
#90 =( LENGTH_UNIT ( ) NAMED_UNIT ( * ) SI_UNIT ( .MILLI., .METRE. ) );
#91 = EDGE_CURVE ( 'NONE', #72, #69, #185, .T. ) ;
#92 = SURFACE_STYLE_FILL_AREA ( #59 ) ;
#93 = LINE ( 'NONE', #10, #281 ) ;
#94 = ORIENTED_EDGE ( 'NONE', *, *, #208, .T. ) ;
#95 =( GEOMETRIC_REPRESENTATION_CONTEXT ( 3 ) GLOBAL_UNCERTAINTY_ASSIGNED_CONTEXT ( ( #144 ) ) GLOBAL_UNIT_ASSIGNED_CONTEXT ( ( #111, #267, #132 ) ) REPRESENTATION_CONTEXT ( 'NONE', 'WORKASPACE' ) );
#96 =( GEOMETRIC_REPRESENTATION_CONTEXT ( 3 ) GLOBAL_UNCERTAINTY_ASSIGNED_CONTEXT ( ( #102 ) ) GLOBAL_UNIT_ASSIGNED_CONTEXT ( ( #204, #39, #180 ) ) REPRESENTATION_CONTEXT ( 'NONE', 'WORKASPACE' ) );
#97 = PRODUCT_DEFINITION_CONTEXT ( 'detailed design', #115, 'design' ) ;
#98 = CARTESIAN_POINT ( 'NONE',  ( -3.499999999999999100, 0.0000000000000000000, 3.500000000000000900 ) ) ;
#99 = ORIENTED_EDGE ( 'NONE', *, *, #43, .F. ) ;
#100 =( NAMED_UNIT ( * ) PLANE_ANGLE_UNIT ( ) SI_UNIT ( $, .RADIAN. ) );
#101 = ORIENTED_EDGE ( 'NONE', *, *, #214, .F. ) ;
#102 = UNCERTAINTY_MEASURE_WITH_UNIT (LENGTH_MEASURE( 1.000000000000000100E-005 ), #204, 'distance_accuracy_value', 'NONE');
#103 =( LENGTH_UNIT ( ) NAMED_UNIT ( * ) SI_UNIT ( .MILLI., .METRE. ) );
#104 = EDGE_CURVE ( 'NONE', #42, #106, #182, .T. ) ;
#105 = SURFACE_STYLE_USAGE ( .BOTH. , #148 ) ;
#106 = VERTEX_POINT ( 'NONE', #152 ) ;
#107 = VECTOR ( 'NONE', #11, 1000.000000000000000 ) ;
#108 = DIRECTION ( 'NONE',  ( 1.000000000000000000, 0.0000000000000000000, -1.239088197126291100E-016 ) ) ;
#109 =( NAMED_UNIT ( * ) PLANE_ANGLE_UNIT ( ) SI_UNIT ( $, .RADIAN. ) );
#110 = STYLED_ITEM ( 'NONE', ( #224 ), #217 ) ;
#111 =( LENGTH_UNIT ( ) NAMED_UNIT ( * ) SI_UNIT ( .MILLI., .METRE. ) );
#112 = ORIENTED_EDGE ( 'NONE', *, *, #179, .T. ) ;
#113 = EDGE_CURVE ( 'NONE', #207, #166, #237, .T. ) ;
#114 = SURFACE_STYLE_FILL_AREA ( #48 ) ;
#115 = APPLICATION_CONTEXT ( 'automotive_design' ) ;
#116 = APPLICATION_CONTEXT ( 'automotive_design' ) ;
#117 = ORIENTED_EDGE ( 'NONE', *, *, #15, .F. ) ;
#118 =( GEOMETRIC_REPRESENTATION_CONTEXT ( 3 ) GLOBAL_UNCERTAINTY_ASSIGNED_CONTEXT ( ( #89 ) ) GLOBAL_UNIT_ASSIGNED_CONTEXT ( ( #103, #76, #238 ) ) REPRESENTATION_CONTEXT ( 'NONE', 'WORKASPACE' ) );
#119 = DIRECTION ( 'NONE',  ( 1.000000000000000000, 0.0000000000000000000, -1.239088197126291100E-016 ) ) ;
#120 = PRESENTATION_STYLE_ASSIGNMENT (( #248 ) ) ;
#121 = VECTOR ( 'NONE', #108, 1000.000000000000000 ) ;
#122 = EDGE_CURVE ( 'NONE', #69, #207, #242, .T. ) ;
#123 = LINE ( 'NONE', #149, #107 ) ;
#124 = AXIS2_PLACEMENT_3D ( 'NONE', #282, #192, #167 ) ;
#125 = DIRECTION ( 'NONE',  ( 0.0000000000000000000, -0.0000000000000000000, 1.000000000000000000 ) ) ;
#126 = SURFACE_STYLE_FILL_AREA ( #147 ) ;
#127 = CARTESIAN_POINT ( 'NONE',  ( -3.499999999999999100, 0.0000000000000000000, 3.500000000000000900 ) ) ;
#128 = VECTOR ( 'NONE', #33, 1000.000000000000000 ) ;
#129 = CARTESIAN_POINT ( 'NONE',  ( 3.499999999999999600, 0.0000000000000000000, -3.500000000000000000 ) ) ;
#130 =( NAMED_UNIT ( * ) PLANE_ANGLE_UNIT ( ) SI_UNIT ( $, .RADIAN. ) );
#131 = PRODUCT_DEFINITION_SHAPE ( 'NONE', 'NONE',  #164 ) ;
#132 =( NAMED_UNIT ( * ) SI_UNIT ( $, .STERADIAN. ) SOLID_ANGLE_UNIT ( ) );
#133 = CARTESIAN_POINT ( 'NONE',  ( -3.499999999999999100, 0.4000000000000000200, 3.500000000000000900 ) ) ;
#134 = PRESENTATION_STYLE_ASSIGNMENT (( #83 ) ) ;
#135 = CARTESIAN_POINT ( 'NONE',  ( -3.499999999999999600, 0.0000000000000000000, -3.500000000000000000 ) ) ;
#136 = UNCERTAINTY_MEASURE_WITH_UNIT (LENGTH_MEASURE( 1.000000000000000100E-005 ), #241, 'distance_accuracy_value', 'NONE');
#137 = STYLED_ITEM ( 'NONE', ( #134 ), #44 ) ;
#138 = PRODUCT_CONTEXT ( 'NONE', #116, 'mechanical' ) ;
#139 = ORIENTED_EDGE ( 'NONE', *, *, #208, .F. ) ;
#140 = AXIS2_PLACEMENT_3D ( 'NONE', #273, #229, #65 ) ;
#141 = ADVANCED_FACE ( 'NONE', ( #234 ), #12, .T. ) ;
#142 = EDGE_CURVE ( 'NONE', #106, #50, #123, .T. ) ;
#143 = ORIENTED_EDGE ( 'NONE', *, *, #91, .F. ) ;
#144 = UNCERTAINTY_MEASURE_WITH_UNIT (LENGTH_MEASURE( 1.000000000000000100E-005 ), #111, 'distance_accuracy_value', 'NONE');
#145 = PRESENTATION_LAYER_ASSIGNMENT (  '', '', ( #23 ) ) ;
#146 = CARTESIAN_POINT ( 'NONE',  ( 0.0000000000000000000, 0.0000000000000000000, 0.0000000000000000000 ) ) ;
#147 = FILL_AREA_STYLE ('',( #191 ) ) ;
#148 = SURFACE_SIDE_STYLE ('',( #190 ) ) ;
#149 = CARTESIAN_POINT ( 'NONE',  ( -3.499999999999999600, 0.4000000000000000200, -3.500000000000000000 ) ) ;
#150 = VECTOR ( 'NONE', #196, 1000.000000000000000 ) ;
#151 = SURFACE_STYLE_USAGE ( .BOTH. , #285 ) ;
#152 = CARTESIAN_POINT ( 'NONE',  ( -3.499999999999999600, 0.4000000000000000200, -3.500000000000000000 ) ) ;
#153 = VECTOR ( 'NONE', #29, 1000.000000000000000 ) ;
#154 = SURFACE_STYLE_FILL_AREA ( #173 ) ;
#155 = DIRECTION ( 'NONE',  ( 0.0000000000000000000, 0.0000000000000000000, 1.000000000000000000 ) ) ;
#156 = UNCERTAINTY_MEASURE_WITH_UNIT (LENGTH_MEASURE( 1.000000000000000100E-005 ), #90, 'distance_accuracy_value', 'NONE');
#157 = CARTESIAN_POINT ( 'NONE',  ( -3.499999999999999600, 0.4000000000000000200, -3.500000000000000000 ) ) ;
#158 =( NAMED_UNIT ( * ) PLANE_ANGLE_UNIT ( ) SI_UNIT ( $, .RADIAN. ) );
#159 = STYLED_ITEM ( 'NONE', ( #82 ), #277 ) ;
#160 = SURFACE_STYLE_FILL_AREA ( #88 ) ;
#161 = ORIENTED_EDGE ( 'NONE', *, *, #179, .F. ) ;
#162 =( GEOMETRIC_REPRESENTATION_CONTEXT ( 3 ) GLOBAL_UNCERTAINTY_ASSIGNED_CONTEXT ( ( #246 ) ) GLOBAL_UNIT_ASSIGNED_CONTEXT ( ( #183, #158, #1 ) ) REPRESENTATION_CONTEXT ( 'NONE', 'WORKASPACE' ) );
#163 = SURFACE_STYLE_FILL_AREA ( #52 ) ;
#164 = PRODUCT_DEFINITION ( 'UNKNOWN', '', #67, #97 ) ;
#165 =( NAMED_UNIT ( * ) SI_UNIT ( $, .STERADIAN. ) SOLID_ANGLE_UNIT ( ) );
#166 = VERTEX_POINT ( 'NONE', #129 ) ;
#167 = DIRECTION ( 'NONE',  ( -6.195440985631452900E-017, 0.0000000000000000000, -1.000000000000000000 ) ) ;
#168 = CARTESIAN_POINT ( 'NONE',  ( -3.499999999999999600, 0.0000000000000000000, -3.500000000000000000 ) ) ;
#169 = FILL_AREA_STYLE_COLOUR ( '', #46 ) ;
#170 = DIRECTION ( 'NONE',  ( -0.0000000000000000000, -1.000000000000000000, -0.0000000000000000000 ) ) ;
#171 = CARTESIAN_POINT ( 'NONE',  ( 0.0000000000000000000, 0.4000000000000000200, 0.0000000000000000000 ) ) ;
#172 = STYLED_ITEM ( 'NONE', ( #120 ), #279 ) ;
#173 = FILL_AREA_STYLE ('',( #177 ) ) ;
#174 = LINE ( 'NONE', #168, #252 ) ;
#175 = PLANE ( 'NONE',  #140 ) ;
#176 = CARTESIAN_POINT ( 'NONE',  ( 3.499999999999999600, 0.0000000000000000000, -3.500000000000000000 ) ) ;
#177 = FILL_AREA_STYLE_COLOUR ( '', #198 ) ;
#178 = DIRECTION ( 'NONE',  ( 6.195440985631452900E-017, 0.0000000000000000000, 1.000000000000000000 ) ) ;
#179 = EDGE_CURVE ( 'NONE', #72, #26, #275, .T. ) ;
#180 =( NAMED_UNIT ( * ) SI_UNIT ( $, .STERADIAN. ) SOLID_ANGLE_UNIT ( ) );
#181 = EDGE_LOOP ( 'NONE', ( #32, #112, #210, #254 ) ) ;
#182 = LINE ( 'NONE', #35, #284 ) ;
#183 =( LENGTH_UNIT ( ) NAMED_UNIT ( * ) SI_UNIT ( .MILLI., .METRE. ) );
#184 = COLOUR_RGB ( '',1.000000000000000000, 0.5019607843137254800, 0.5019607843137254800 ) ;
#185 = LINE ( 'NONE', #133, #56 ) ;
#186 = COLOUR_RGB ( '',1.000000000000000000, 0.5019607843137254800, 0.5019607843137254800 ) ;
#187 = ORIENTED_EDGE ( 'NONE', *, *, #63, .T. ) ;
#188 = PRESENTATION_STYLE_ASSIGNMENT (( #203 ) ) ;
#189 =( GEOMETRIC_REPRESENTATION_CONTEXT ( 3 ) GLOBAL_UNCERTAINTY_ASSIGNED_CONTEXT ( ( #74 ) ) GLOBAL_UNIT_ASSIGNED_CONTEXT ( ( #264, #130, #240 ) ) REPRESENTATION_CONTEXT ( 'NONE', 'WORKASPACE' ) );
#190 = SURFACE_STYLE_FILL_AREA ( #283 ) ;
#191 = FILL_AREA_STYLE_COLOUR ( '', #30 ) ;
#192 = DIRECTION ( 'NONE',  ( 1.000000000000000000, 0.0000000000000000000, -6.195440985631452900E-017 ) ) ;
#193 = COLOUR_RGB ( '',1.000000000000000000, 1.000000000000000000, 1.000000000000000000 ) ;
#194 =( NAMED_UNIT ( * ) SI_UNIT ( $, .STERADIAN. ) SOLID_ANGLE_UNIT ( ) );
#195 = CARTESIAN_POINT ( 'NONE',  ( 3.500000000000000000, 0.4000000000000000200, 3.500000000000000000 ) ) ;
#196 = DIRECTION ( 'NONE',  ( -6.195440985631454100E-017, -0.0000000000000000000, -1.000000000000000000 ) ) ;
#197 = EDGE_LOOP ( 'NONE', ( #287, #24, #18, #94 ) ) ;
#198 = COLOUR_RGB ( '',1.000000000000000000, 1.000000000000000000, 1.000000000000000000 ) ;
#199 = CARTESIAN_POINT ( 'NONE',  ( 3.500000000000000000, 0.0000000000000000000, 3.500000000000000000 ) ) ;
#200 = FILL_AREA_STYLE_COLOUR ( '', #25 ) ;
#201 = FACE_OUTER_BOUND ( 'NONE', #84, .T. ) ;
#202 = EDGE_CURVE ( 'NONE', #26, #42, #292, .T. ) ;
#203 = SURFACE_STYLE_USAGE ( .BOTH. , #60 ) ;
#204 =( LENGTH_UNIT ( ) NAMED_UNIT ( * ) SI_UNIT ( .MILLI., .METRE. ) );
#205 = CARTESIAN_POINT ( 'NONE',  ( 0.0000000000000000000, 0.0000000000000000000, 0.0000000000000000000 ) ) ;
#206 = SHAPE_DEFINITION_REPRESENTATION ( #131, #217 ) ;
#207 = VERTEX_POINT ( 'NONE', #199 ) ;
#208 = EDGE_CURVE ( 'NONE', #42, #166, #93, .T. ) ;
#209 = MECHANICAL_DESIGN_GEOMETRIC_PRESENTATION_REPRESENTATION (  '', ( #159 ), #211 ) ;
#210 = ORIENTED_EDGE ( 'NONE', *, *, #202, .T. ) ;
#211 =( GEOMETRIC_REPRESENTATION_CONTEXT ( 3 ) GLOBAL_UNCERTAINTY_ASSIGNED_CONTEXT ( ( #136 ) ) GLOBAL_UNIT_ASSIGNED_CONTEXT ( ( #241, #109, #194 ) ) REPRESENTATION_CONTEXT ( 'NONE', 'WORKASPACE' ) );
#212 = VECTOR ( 'NONE', #178, 1000.000000000000000 ) ;
#213 = ORIENTED_EDGE ( 'NONE', *, *, #63, .F. ) ;
#214 = EDGE_CURVE ( 'NONE', #26, #207, #61, .T. ) ;
#215 = AXIS2_PLACEMENT_3D ( 'NONE', #205, #291, #21 ) ;
#216 = CARTESIAN_POINT ( 'NONE',  ( 3.499999999999999600, 0.4000000000000000200, -3.500000000000000000 ) ) ;
#217 = ADVANCED_BREP_SHAPE_REPRESENTATION ( 'CTN002721', ( #258, #215 ), #162 ) ;
#218 = SURFACE_SIDE_STYLE ('',( #163 ) ) ;
#219 = ORIENTED_EDGE ( 'NONE', *, *, #122, .F. ) ;
#220 = MECHANICAL_DESIGN_GEOMETRIC_PRESENTATION_REPRESENTATION (  '', ( #23 ), #118 ) ;
#221 = MECHANICAL_DESIGN_GEOMETRIC_PRESENTATION_REPRESENTATION (  '', ( #110 ), #96 ) ;
#222 = AXIS2_PLACEMENT_3D ( 'NONE', #17, #155, #288 ) ;
#223 = FILL_AREA_STYLE ('',( #57 ) ) ;
#224 = PRESENTATION_STYLE_ASSIGNMENT (( #62 ) ) ;
#225 = LINE ( 'NONE', #19, #153 ) ;
#226 = PLANE ( 'NONE',  #7 ) ;
#227 = PRESENTATION_LAYER_ASSIGNMENT (  '', '', ( #137 ) ) ;
#228 = SURFACE_SIDE_STYLE ('',( #160 ) ) ;
#229 = DIRECTION ( 'NONE',  ( -1.239088197126291100E-016, 0.0000000000000000000, -1.000000000000000000 ) ) ;
#230 = ORIENTED_EDGE ( 'NONE', *, *, #142, .T. ) ;
#231 = VECTOR ( 'NONE', #119, 1000.000000000000000 ) ;
#232 =( GEOMETRIC_REPRESENTATION_CONTEXT ( 3 ) GLOBAL_UNCERTAINTY_ASSIGNED_CONTEXT ( ( #156 ) ) GLOBAL_UNIT_ASSIGNED_CONTEXT ( ( #90, #6, #31 ) ) REPRESENTATION_CONTEXT ( 'NONE', 'WORKASPACE' ) );
#233 = LINE ( 'NONE', #157, #212 ) ;
#234 = FACE_OUTER_BOUND ( 'NONE', #181, .T. ) ;
#235 = SURFACE_SIDE_STYLE ('',( #114 ) ) ;
#236 = ORIENTED_EDGE ( 'NONE', *, *, #113, .F. ) ;
#237 = LINE ( 'NONE', #176, #13 ) ;
#238 =( NAMED_UNIT ( * ) SI_UNIT ( $, .STERADIAN. ) SOLID_ANGLE_UNIT ( ) );
#239 = PRESENTATION_LAYER_ASSIGNMENT (  '', '', ( #86 ) ) ;
#240 =( NAMED_UNIT ( * ) SI_UNIT ( $, .STERADIAN. ) SOLID_ANGLE_UNIT ( ) );
#241 =( LENGTH_UNIT ( ) NAMED_UNIT ( * ) SI_UNIT ( .MILLI., .METRE. ) );
#242 = LINE ( 'NONE', #127, #231 ) ;
#243 = SURFACE_STYLE_USAGE ( .BOTH. , #81 ) ;
#244 = MECHANICAL_DESIGN_GEOMETRIC_PRESENTATION_REPRESENTATION (  '', ( #172 ), #232 ) ;
#245 = DIRECTION ( 'NONE',  ( -1.000000000000000000, -0.0000000000000000000, -0.0000000000000000000 ) ) ;
#246 = UNCERTAINTY_MEASURE_WITH_UNIT (LENGTH_MEASURE( 1.000000000000000100E-005 ), #183, 'distance_accuracy_value', 'NONE');
#247 = APPLICATION_PROTOCOL_DEFINITION ( 'draft international standard', 'automotive_design', 1998, #116 ) ;
#248 = SURFACE_STYLE_USAGE ( .BOTH. , #235 ) ;
#249 = AXIS2_PLACEMENT_3D ( 'NONE', #171, #79, #55 ) ;
#250 = ADVANCED_FACE ( 'NONE', ( #53 ), #54, .F. ) ;
#251 = ORIENTED_EDGE ( 'NONE', *, *, #91, .T. ) ;
#252 = VECTOR ( 'NONE', #245, 1000.000000000000000 ) ;
#253 = STYLED_ITEM ( 'NONE', ( #66 ), #258 ) ;
#254 = ORIENTED_EDGE ( 'NONE', *, *, #104, .T. ) ;
#255 = DIRECTION ( 'NONE',  ( -0.0000000000000000000, -1.000000000000000000, -0.0000000000000000000 ) ) ;
#256 = FACE_OUTER_BOUND ( 'NONE', #271, .T. ) ;
#257 =( NAMED_UNIT ( * ) PLANE_ANGLE_UNIT ( ) SI_UNIT ( $, .RADIAN. ) );
#258 = MANIFOLD_SOLID_BREP ( 'Boss-Extrude1', #41 ) ;
#259 = FILL_AREA_STYLE_COLOUR ( '', #40 ) ;
#260 =( GEOMETRIC_REPRESENTATION_CONTEXT ( 3 ) GLOBAL_UNCERTAINTY_ASSIGNED_CONTEXT ( ( #51 ) ) GLOBAL_UNIT_ASSIGNED_CONTEXT ( ( #73, #257, #165 ) ) REPRESENTATION_CONTEXT ( 'NONE', 'WORKASPACE' ) );
#261 = ORIENTED_EDGE ( 'NONE', *, *, #214, .T. ) ;
#262 = PLANE ( 'NONE',  #124 ) ;
#263 = CARTESIAN_POINT ( 'NONE',  ( 3.499999999999999600, 0.4000000000000000200, -3.500000000000000000 ) ) ;
#264 =( LENGTH_UNIT ( ) NAMED_UNIT ( * ) SI_UNIT ( .MILLI., .METRE. ) );
#265 = PRESENTATION_LAYER_ASSIGNMENT (  '', '', ( #159 ) ) ;
#266 = DIRECTION ( 'NONE',  ( -1.000000000000000000, 0.0000000000000000000, 6.195440985631454100E-017 ) ) ;
#267 =( NAMED_UNIT ( * ) PLANE_ANGLE_UNIT ( ) SI_UNIT ( $, .RADIAN. ) );
#268 = EDGE_LOOP ( 'NONE', ( #8, #139, #276, #261 ) ) ;
#269 = FACE_OUTER_BOUND ( 'NONE', #197, .T. ) ;
#270 = CARTESIAN_POINT ( 'NONE',  ( -3.499999999999999100, 0.4000000000000000200, 3.500000000000000900 ) ) ;
#271 = EDGE_LOOP ( 'NONE', ( #187, #143, #117, #230 ) ) ;
#272 = CARTESIAN_POINT ( 'NONE',  ( 3.499999999999999600, 0.4000000000000000200, -3.500000000000000000 ) ) ;
#273 = CARTESIAN_POINT ( 'NONE',  ( -3.499999999999999100, 0.4000000000000000200, 3.500000000000000900 ) ) ;
#274 = PRESENTATION_LAYER_ASSIGNMENT (  '', '', ( #253 ) ) ;
#275 = LINE ( 'NONE', #34, #121 ) ;
#276 = ORIENTED_EDGE ( 'NONE', *, *, #202, .F. ) ;
#277 = ADVANCED_FACE ( 'NONE', ( #256 ), #262, .F. ) ;
#278 = ORIENTED_EDGE ( 'NONE', *, *, #122, .T. ) ;
#279 = ADVANCED_FACE ( 'NONE', ( #3 ), #175, .F. ) ;
#280 = DIRECTION ( 'NONE',  ( -0.0000000000000000000, 1.000000000000000000, 0.0000000000000000000 ) ) ;
#281 = VECTOR ( 'NONE', #170, 1000.000000000000000 ) ;
#282 = CARTESIAN_POINT ( 'NONE',  ( -3.499999999999999600, 0.4000000000000000200, -3.500000000000000000 ) ) ;
#283 = FILL_AREA_STYLE ('',( #169 ) ) ;
#284 = VECTOR ( 'NONE', #16, 1000.000000000000000 ) ;
#285 = SURFACE_SIDE_STYLE ('',( #154 ) ) ;
#286 = DIRECTION ( 'NONE',  ( 6.195440985631454100E-017, 0.0000000000000000000, 1.000000000000000000 ) ) ;
#287 = ORIENTED_EDGE ( 'NONE', *, *, #43, .T. ) ;
#288 = DIRECTION ( 'NONE',  ( 1.000000000000000000, 0.0000000000000000000, -0.0000000000000000000 ) ) ;
#289 = STYLED_ITEM ( 'NONE', ( #188 ), #68 ) ;
#290 = CARTESIAN_POINT ( 'NONE',  ( 3.500000000000000000, 0.4000000000000000200, 3.500000000000000000 ) ) ;
#291 = DIRECTION ( 'NONE',  ( 0.0000000000000000000, 0.0000000000000000000, 1.000000000000000000 ) ) ;
#292 = LINE ( 'NONE', #263, #150 ) ;
ENDSEC;
END-ISO-10303-21;
