ISO-10303-21;
HEADER;
FILE_DESCRIPTION (( 'STEP AP203' ),
    '1' );
FILE_NAME ('Web Model 32601.STEP',
    '2017-01-31T15:12:31',
    ( '' ),
    ( '' ),
    'SwSTEP 2.0',
    'SolidWorks 2016',
    '' );
FILE_SCHEMA (( 'CONFIG_CONTROL_DESIGN' ));
ENDSEC;

DATA;
#1 = CLOSED_SHELL ( 'NONE', ( #183, #142, #226, #273, #58 ) ) ;
#2 = VECTOR ( 'NONE', #78, 1000.000000000000000 ) ;
#3 = CALENDAR_DATE ( 2017, 31, 1 ) ;
#4 = CC_DESIGN_DATE_AND_TIME_ASSIGNMENT ( #257, #140, ( #153 ) ) ;
#5 = VECTOR ( 'NONE', #243, 1000.000000000000000 ) ;
#6 = EDGE_LOOP ( 'NONE', ( #35, #185, #119, #260 ) ) ;
#7 = PRODUCT_DEFINITION_SHAPE ( 'NONE', 'NONE',  #153 ) ;
#8 = FACE_OUTER_BOUND ( 'NONE', #279, .T. ) ;
#9 = LINE ( 'NONE', #288, #80 ) ;
#10 = LOCAL_TIME ( 10, 12, 31.00000000000000000, #162 ) ;
#11 = ORIENTED_EDGE ( 'NONE', *, *, #129, .F. ) ;
#12 = VECTOR ( 'NONE', #268, 1000.000000000000000 ) ;
#13 = DIRECTION ( 'NONE',  ( 0.0000000000000000000, -1.733510018963532700E-016, 1.000000000000000000 ) ) ;
#14 = EDGE_CURVE ( 'NONE', #71, #253, #48, .T. ) ;
#15 = CARTESIAN_POINT ( 'NONE',  ( 10.00000000000000000, 0.0000000000000000000, 0.0000000000000000000 ) ) ;
#16 = LINE ( 'NONE', #108, #284 ) ;
#17 = CARTESIAN_POINT ( 'NONE',  ( 10.00000000000000000, -10.00700000000000000, -1.225504051906756400E-015 ) ) ;
#18 = CARTESIAN_POINT ( 'NONE',  ( 10.00000000000000000, 0.09847208579926873500, 0.09140101798740360400 ) ) ;
#19 = AXIS2_PLACEMENT_3D ( 'NONE', #94, #169, #188 ) ;
#20 = PERSON_AND_ORGANIZATION ( #281, #91 ) ;
#21 = ORIENTED_EDGE ( 'NONE', *, *, #109, .T. ) ;
#22 = CARTESIAN_POINT ( 'NONE',  ( 10.00000000000000000, -0.007071067811865501400, -8.659560562354965900E-019 ) ) ;
#23 = FACE_OUTER_BOUND ( 'NONE', #126, .T. ) ;
#24 = DIRECTION ( 'NONE',  ( 0.0000000000000000000, -1.000000000000000000, -1.224646799147353500E-016 ) ) ;
#25 = CALENDAR_DATE ( 2017, 31, 1 ) ;
#26 = PLANE ( 'NONE',  #166 ) ;
#27 = ORIENTED_EDGE ( 'NONE', *, *, #29, .T. ) ;
#28 = VECTOR ( 'NONE', #189, 1000.000000000000000 ) ;
#29 = EDGE_CURVE ( 'NONE', #280, #222, #204, .T. ) ;
#30 = ORIENTED_EDGE ( 'NONE', *, *, #14, .T. ) ;
#31 = PERSON_AND_ORGANIZATION ( #281, #91 ) ;
#32 = DATE_AND_TIME ( #41, #10 ) ;
#33 = APPROVAL_PERSON_ORGANIZATION ( #111, #195, #294 ) ;
#34 = CARTESIAN_POINT ( 'NONE',  ( 10.00000000000000000, -10.00700000000000000, -1.225504051906756400E-015 ) ) ;
#35 = ORIENTED_EDGE ( 'NONE', *, *, #29, .F. ) ;
#36 = FACE_OUTER_BOUND ( 'NONE', #39, .T. ) ;
#37 = DIRECTION ( 'NONE',  ( -1.000000000000000000, 0.0000000000000000000, 0.0000000000000000000 ) ) ;
#38 = COORDINATED_UNIVERSAL_TIME_OFFSET ( 5, 0, .BEHIND. ) ;
#39 = EDGE_LOOP ( 'NONE', ( #319, #30, #122 ) ) ;
#40 = DIRECTION ( 'NONE',  ( 0.0000000000000000000, 0.0000000000000000000, 1.000000000000000000 ) ) ;
#41 = CALENDAR_DATE ( 2017, 31, 1 ) ;
#42 = ADVANCED_BREP_SHAPE_REPRESENTATION ( 'Web Model 32601', ( #194, #168, #246 ), #302 ) ;
#43 = ORIENTED_EDGE ( 'NONE', *, *, #74, .T. ) ;
#44 = LINE ( 'NONE', #114, #113 ) ;
#45 = APPROVAL_DATE_TIME ( #32, #195 ) ;
#46 = CARTESIAN_POINT ( 'NONE',  ( 10.00000000000000000, 0.09140101798740321600, 0.09847208579926905500 ) ) ;
#47 = CARTESIAN_POINT ( 'NONE',  ( 10.00000000000000000, -8.267041565201971300E-016, -0.007071067811866352200 ) ) ;
#48 = LINE ( 'NONE', #135, #2 ) ;
#49 =( NAMED_UNIT ( * ) SI_UNIT ( $, .STERADIAN. ) SOLID_ANGLE_UNIT ( ) );
#50 = CC_DESIGN_PERSON_AND_ORGANIZATION_ASSIGNMENT ( #20, #156, ( #151 ) ) ;
#51 = EDGE_CURVE ( 'NONE', #238, #71, #99, .T. ) ;
#52 = DIRECTION ( 'NONE',  ( -1.000000000000000000, 0.0000000000000000000, 0.0000000000000000000 ) ) ;
#53 = CARTESIAN_POINT ( 'NONE',  ( 10.00000000000000000, -9.999928932188096200, -10.00700000000000100 ) ) ;
#54 = VERTEX_POINT ( 'NONE', #104 ) ;
#55 = ORIENTED_EDGE ( 'NONE', *, *, #109, .F. ) ;
#56 = SECURITY_CLASSIFICATION_LEVEL ( 'unclassified' ) ;
#57 = PERSON_AND_ORGANIZATION_ROLE ( 'design_supplier' ) ;
#58 = ADVANCED_FACE ( 'NONE', ( #23 ), #81, .T. ) ;
#59 = EDGE_CURVE ( 'NONE', #171, #150, #16, .T. ) ;
#60 = VECTOR ( 'NONE', #190, 1000.000000000000000 ) ;
#61 = ORIENTED_EDGE ( 'NONE', *, *, #296, .T. ) ;
#62 = AXIS2_PLACEMENT_3D ( 'NONE', #300, #184, #208 ) ;
#63 = CARTESIAN_POINT ( 'NONE',  ( 10.00000000000000000, -10.00699999999999600, -9.999928932188167300 ) ) ;
#64 = DATE_AND_TIME ( #141, #196 ) ;
#65 = SECURITY_CLASSIFICATION ( '', '', #56 ) ;
#66 = FACE_OUTER_BOUND ( 'NONE', #6, .T. ) ;
#67 = EDGE_LOOP ( 'NONE', ( #283, #201, #299, #234 ) ) ;
#68 = COORDINATED_UNIVERSAL_TIME_OFFSET ( 5, 0, .BEHIND. ) ;
#69 = CC_DESIGN_PERSON_AND_ORGANIZATION_ASSIGNMENT ( #178, #220, ( #209 ) ) ;
#70 = PLANE ( 'NONE',  #256 ) ;
#71 = VERTEX_POINT ( 'NONE', #84 ) ;
#72 = LINE ( 'NONE', #245, #231 ) ;
#73 = LINE ( 'NONE', #133, #173 ) ;
#74 = EDGE_CURVE ( 'NONE', #54, #150, #237, .T. ) ;
#75 = DIRECTION ( 'NONE',  ( 0.0000000000000000000, 0.0000000000000000000, 1.000000000000000000 ) ) ;
#76 = MECHANICAL_CONTEXT ( 'NONE', #297, 'mechanical' ) ;
#77 = COORDINATED_UNIVERSAL_TIME_OFFSET ( 5, 0, .BEHIND. ) ;
#78 = DIRECTION ( 'NONE',  ( -0.0000000000000000000, 1.000000000000000000, 1.733510018963532900E-016 ) ) ;
#79 = PERSON_AND_ORGANIZATION_ROLE ( 'creator' ) ;
#80 = VECTOR ( 'NONE', #52, 1000.000000000000000 ) ;
#81 = PLANE ( 'NONE',  #192 ) ;
#82 = LINE ( 'NONE', #103, #265 ) ;
#83 = ADVANCED_FACE ( 'NONE', ( #159 ), #26, .F. ) ;
#84 = CARTESIAN_POINT ( 'NONE',  ( 10.00000000000000000, -9.999928932188096200, -10.00700000000000100 ) ) ;
#85 = APPROVAL_ROLE ( '' ) ;
#86 = DIRECTION ( 'NONE',  ( -0.0000000000000000000, 3.254573445882149400E-020, 1.000000000000000000 ) ) ;
#87 = LINE ( 'NONE', #310, #213 ) ;
#88 = ORIENTED_EDGE ( 'NONE', *, *, #227, .T. ) ;
#89 = COORDINATED_UNIVERSAL_TIME_OFFSET ( 5, 0, .BEHIND. ) ;
#90 = PLANE ( 'NONE',  #221 ) ;
#91 = ORGANIZATION ( 'UNSPECIFIED', 'UNSPECIFIED', '' ) ;
#92 = DESIGN_CONTEXT ( 'detailed design', #217, 'design' ) ;
#93 = VECTOR ( 'NONE', #267, 1000.000000000000000 ) ;
#94 = CARTESIAN_POINT ( 'NONE',  ( 10.00000000000000000, -3.256851647294266800E-019, -10.00700000000000000 ) ) ;
#95 = CC_DESIGN_APPROVAL ( #124, ( #65 ) ) ;
#96 = ORIENTED_EDGE ( 'NONE', *, *, #227, .F. ) ;
#97 = EDGE_CURVE ( 'NONE', #150, #216, #224, .T. ) ;
#98 = ORIENTED_EDGE ( 'NONE', *, *, #74, .F. ) ;
#99 = LINE ( 'NONE', #53, #123 ) ;
#100 = CC_DESIGN_DATE_AND_TIME_ASSIGNMENT ( #117, #314, ( #65 ) ) ;
#101 = DIRECTION ( 'NONE',  ( 1.000000000000000000, 0.0000000000000000000, 0.0000000000000000000 ) ) ;
#102 = PERSON_AND_ORGANIZATION ( #281, #91 ) ;
#103 = CARTESIAN_POINT ( 'NONE',  ( 0.0000000000000000000, -4.999964466094066800, -5.007035533905953400 ) ) ;
#104 = CARTESIAN_POINT ( 'NONE',  ( 0.0000000000000000000, -0.007071067811865891700, -4.065758146820641600E-016 ) ) ;
#105 = ORIENTED_EDGE ( 'NONE', *, *, #296, .F. ) ;
#106 = VECTOR ( 'NONE', #24, 1000.000000000000000 ) ;
#107 = DIRECTION ( 'NONE',  ( 0.0000000000000000000, 0.7071067811865462400, 0.7071067811865489100 ) ) ;
#108 = CARTESIAN_POINT ( 'NONE',  ( 10.00000000000000000, -10.00700000000000000, -1.225504051906756400E-015 ) ) ;
#109 = EDGE_CURVE ( 'NONE', #54, #130, #179, .T. ) ;
#110 = DIRECTION ( 'NONE',  ( 0.0000000000000000000, -1.000000000000000000, -1.224646799147353500E-016 ) ) ;
#111 = PERSON_AND_ORGANIZATION ( #281, #91 ) ;
#112 = VERTEX_POINT ( 'NONE', #298 ) ;
#113 = VECTOR ( 'NONE', #86, 1000.000000000000000 ) ;
#114 = CARTESIAN_POINT ( 'NONE',  ( 0.0000000000000000000, 0.0000000000000000000, 0.0000000000000000000 ) ) ;
#115 = APPROVAL_STATUS ( 'not_yet_approved' ) ;
#116 = ADVANCED_FACE ( 'NONE', ( #154 ), #144, .T. ) ;
#117 = DATE_AND_TIME ( #25, #229 ) ;
#118 = EDGE_CURVE ( 'NONE', #112, #222, #44, .T. ) ;
#119 = ORIENTED_EDGE ( 'NONE', *, *, #258, .T. ) ;
#120 = LINE ( 'NONE', #250, #28 ) ;
#121 = DIRECTION ( 'NONE',  ( 0.0000000000000000000, 1.733510018963532900E-016, -1.000000000000000000 ) ) ;
#122 = ORIENTED_EDGE ( 'NONE', *, *, #278, .T. ) ;
#123 = VECTOR ( 'NONE', #295, 1000.000000000000000 ) ;
#124 = APPROVAL ( #223, 'UNSPECIFIED' ) ;
#125 = DIRECTION ( 'NONE',  ( 0.0000000000000000000, -1.000000000000000000, 3.254573445882149400E-020 ) ) ;
#126 = EDGE_LOOP ( 'NONE', ( #27, #313, #152, #242 ) ) ;
#127 = PLANE ( 'NONE',  #304 ) ;
#128 = DIRECTION ( 'NONE',  ( 0.0000000000000000000, -0.7071067811865489100, 0.7071067811865462400 ) ) ;
#129 = EDGE_CURVE ( 'NONE', #171, #163, #272, .T. ) ;
#130 = VERTEX_POINT ( 'NONE', #212 ) ;
#131 =( LENGTH_UNIT ( ) NAMED_UNIT ( * ) SI_UNIT ( .MILLI., .METRE. ) );
#132 = CARTESIAN_POINT ( 'NONE',  ( 0.0000000000000000000, 0.0000000000000000000, 0.0000000000000000000 ) ) ;
#133 = CARTESIAN_POINT ( 'NONE',  ( 10.00000000000000000, 0.09847208579926873500, 0.09140101798740360400 ) ) ;
#134 = CARTESIAN_POINT ( 'NONE',  ( 10.00000000000000000, 0.09140101798740321600, 0.09847208579926905500 ) ) ;
#135 = CARTESIAN_POINT ( 'NONE',  ( 10.00000000000000000, -3.256851647294266800E-019, -10.00700000000000000 ) ) ;
#136 = EDGE_LOOP ( 'NONE', ( #21, #191, #61, #96 ) ) ;
#137 = PLANE ( 'NONE',  #200 ) ;
#138 = ORIENTED_EDGE ( 'NONE', *, *, #59, .F. ) ;
#139 = SHAPE_DEFINITION_REPRESENTATION ( #7, #42 ) ;
#140 = DATE_TIME_ROLE ( 'creation_date' ) ;
#141 = CALENDAR_DATE ( 2017, 31, 1 ) ;
#142 = ADVANCED_FACE ( 'NONE', ( #290 ), #303, .F. ) ;
#143 = CC_DESIGN_APPROVAL ( #252, ( #209 ) ) ;
#144 = PLANE ( 'NONE',  #62 ) ;
#145 = LINE ( 'NONE', #266, #5 ) ;
#146 = CLOSED_SHELL ( 'NONE', ( #116, #165, #251, #83, #316 ) ) ;
#147 = DIRECTION ( 'NONE',  ( -1.000000000000000000, 0.0000000000000000000, 0.0000000000000000000 ) ) ;
#148 = PERSON_AND_ORGANIZATION ( #281, #91 ) ;
#149 = FACE_OUTER_BOUND ( 'NONE', #207, .T. ) ;
#150 = VERTEX_POINT ( 'NONE', #301 ) ;
#151 = PRODUCT ( 'Web Model 32601', 'Web Model 32601', '', ( #76 ) ) ;
#152 = ORIENTED_EDGE ( 'NONE', *, *, #51, .T. ) ;
#153 = PRODUCT_DEFINITION ( 'UNKNOWN', '', #209, #92 ) ;
#154 = FACE_OUTER_BOUND ( 'NONE', #261, .T. ) ;
#155 = DIRECTION ( 'NONE',  ( -0.0000000000000000000, 0.7071067811865462400, 0.7071067811865489100 ) ) ;
#156 = PERSON_AND_ORGANIZATION_ROLE ( 'design_owner' ) ;
#157 = CC_DESIGN_SECURITY_CLASSIFICATION ( #65, ( #209 ) ) ;
#158 = UNCERTAINTY_MEASURE_WITH_UNIT (LENGTH_MEASURE( 1.000000000000000100E-005 ), #131, 'distance_accuracy_value', 'NONE');
#159 = FACE_OUTER_BOUND ( 'NONE', #193, .T. ) ;
#160 = PLANE ( 'NONE',  #206 ) ;
#161 = APPROVAL_PERSON_ORGANIZATION ( #31, #124, #274 ) ;
#162 = COORDINATED_UNIVERSAL_TIME_OFFSET ( 5, 0, .BEHIND. ) ;
#163 = VERTEX_POINT ( 'NONE', #63 ) ;
#164 = PERSON_AND_ORGANIZATION_ROLE ( 'classification_officer' ) ;
#165 = ADVANCED_FACE ( 'NONE', ( #149 ), #90, .F. ) ;
#166 = AXIS2_PLACEMENT_3D ( 'NONE', #321, #230, #186 ) ;
#167 = CC_DESIGN_PERSON_AND_ORGANIZATION_ASSIGNMENT ( #148, #79, ( #153 ) ) ;
#168 = MANIFOLD_SOLID_BREP ( 'Cut-Extrude2[2]', #1 ) ;
#169 = DIRECTION ( 'NONE',  ( 0.0000000000000000000, -1.733510018963532900E-016, 1.000000000000000000 ) ) ;
#170 = CARTESIAN_POINT ( 'NONE',  ( 10.00000000000000000, -10.00700000000000000, -1.225504051906756400E-015 ) ) ;
#171 = VERTEX_POINT ( 'NONE', #34 ) ;
#172 = APPROVAL_DATE_TIME ( #64, #252 ) ;
#173 = VECTOR ( 'NONE', #155, 1000.000000000000000 ) ;
#174 = CC_DESIGN_PERSON_AND_ORGANIZATION_ASSIGNMENT ( #102, #57, ( #209 ) ) ;
#175 = ORIENTED_EDGE ( 'NONE', *, *, #187, .F. ) ;
#176 = VECTOR ( 'NONE', #210, 1000.000000000000000 ) ;
#177 = CARTESIAN_POINT ( 'NONE',  ( 0.0000000000000000000, 0.0000000000000000000, 0.0000000000000000000 ) ) ;
#178 = PERSON_AND_ORGANIZATION ( #281, #91 ) ;
#179 = LINE ( 'NONE', #22, #176 ) ;
#180 = APPLICATION_PROTOCOL_DEFINITION ( 'international standard', 'config_control_design', 1994, #217 ) ;
#181 = DIRECTION ( 'NONE',  ( 0.0000000000000000000, 0.0000000000000000000, 1.000000000000000000 ) ) ;
#182 = LINE ( 'NONE', #15, #12 ) ;
#183 = ADVANCED_FACE ( 'NONE', ( #66 ), #70, .F. ) ;
#184 = DIRECTION ( 'NONE',  ( -1.000000000000000000, 0.0000000000000000000, 0.0000000000000000000 ) ) ;
#185 = ORIENTED_EDGE ( 'NONE', *, *, #278, .F. ) ;
#186 = DIRECTION ( 'NONE',  ( 0.0000000000000000000, 1.000000000000000000, 1.224646799147353500E-016 ) ) ;
#187 = EDGE_CURVE ( 'NONE', #238, #112, #120, .T. ) ;
#188 = DIRECTION ( 'NONE',  ( 0.0000000000000000000, -1.000000000000000000, -1.733510018963532900E-016 ) ) ;
#189 = DIRECTION ( 'NONE',  ( -0.0000000000000000000, 1.000000000000000000, 1.733510018963532900E-016 ) ) ;
#190 = DIRECTION ( 'NONE',  ( 0.0000000000000000000, 1.733510018963532900E-016, -1.000000000000000000 ) ) ;
#191 = ORIENTED_EDGE ( 'NONE', *, *, #232, .T. ) ;
#192 = AXIS2_PLACEMENT_3D ( 'NONE', #18, #128, #287 ) ;
#193 = EDGE_LOOP ( 'NONE', ( #55, #43, #138, #275 ) ) ;
#194 = MANIFOLD_SOLID_BREP ( 'Cut-Extrude2[1]', #146 ) ;
#195 = APPROVAL ( #199, 'UNSPECIFIED' ) ;
#196 = LOCAL_TIME ( 10, 12, 31.00000000000000000, #68 ) ;
#197 = ORIENTED_EDGE ( 'NONE', *, *, #270, .T. ) ;
#198 =( NAMED_UNIT ( * ) PLANE_ANGLE_UNIT ( ) SI_UNIT ( $, .RADIAN. ) );
#199 = APPROVAL_STATUS ( 'not_yet_approved' ) ;
#200 = AXIS2_PLACEMENT_3D ( 'NONE', #46, #286, #219 ) ;
#201 = ORIENTED_EDGE ( 'NONE', *, *, #187, .T. ) ;
#202 = PRODUCT_RELATED_PRODUCT_CATEGORY ( 'detail', '', ( #151 ) ) ;
#203 = CC_DESIGN_PERSON_AND_ORGANIZATION_ASSIGNMENT ( #285, #164, ( #65 ) ) ;
#204 = LINE ( 'NONE', #205, #93 ) ;
#205 = CARTESIAN_POINT ( 'NONE',  ( 10.00000000000000000, -2.301330953452953900E-022, -0.007071067811865527400 ) ) ;
#206 = AXIS2_PLACEMENT_3D ( 'NONE', #263, #292, #218 ) ;
#207 = EDGE_LOOP ( 'NONE', ( #289, #308, #271 ) ) ;
#208 = DIRECTION ( 'NONE',  ( 0.0000000000000000000, 0.0000000000000000000, 1.000000000000000000 ) ) ;
#209 = PRODUCT_DEFINITION_FORMATION_WITH_SPECIFIED_SOURCE ( 'ANY', '', #151, .NOT_KNOWN. ) ;
#210 = DIRECTION ( 'NONE',  ( 1.000000000000000000, 0.0000000000000000000, 0.0000000000000000000 ) ) ;
#211 = ORIENTED_EDGE ( 'NONE', *, *, #97, .F. ) ;
#212 = CARTESIAN_POINT ( 'NONE',  ( 10.00000000000000000, -0.007071067811865891700, -4.065758146820641600E-016 ) ) ;
#213 = VECTOR ( 'NONE', #241, 1000.000000000000000 ) ;
#214 = PLANE ( 'NONE',  #235 ) ;
#215 = LINE ( 'NONE', #134, #309 ) ;
#216 = VERTEX_POINT ( 'NONE', #233 ) ;
#217 = APPLICATION_CONTEXT ( 'configuration controlled 3d designs of mechanical parts and assemblies' ) ;
#218 = DIRECTION ( 'NONE',  ( 0.0000000000000000000, 0.0000000000000000000, 1.000000000000000000 ) ) ;
#219 = DIRECTION ( 'NONE',  ( 0.0000000000000000000, 0.7071067811865463500, 0.7071067811865487900 ) ) ;
#220 = PERSON_AND_ORGANIZATION_ROLE ( 'creator' ) ;
#221 = AXIS2_PLACEMENT_3D ( 'NONE', #254, #37, #40 ) ;
#222 = VERTEX_POINT ( 'NONE', #291 ) ;
#223 = APPROVAL_STATUS ( 'not_yet_approved' ) ;
#224 = LINE ( 'NONE', #225, #276 ) ;
#225 = CARTESIAN_POINT ( 'NONE',  ( 0.0000000000000000000, -10.00700000000000000, -1.225504051906756400E-015 ) ) ;
#226 = ADVANCED_FACE ( 'NONE', ( #36 ), #214, .F. ) ;
#227 = EDGE_CURVE ( 'NONE', #54, #216, #145, .T. ) ;
#228 = CC_DESIGN_APPROVAL ( #195, ( #153 ) ) ;
#229 = LOCAL_TIME ( 10, 12, 31.00000000000000000, #38 ) ;
#230 = DIRECTION ( 'NONE',  ( 0.0000000000000000000, 1.224646799147353500E-016, -1.000000000000000000 ) ) ;
#231 = VECTOR ( 'NONE', #110, 1000.000000000000000 ) ;
#232 = EDGE_CURVE ( 'NONE', #130, #163, #215, .T. ) ;
#233 = CARTESIAN_POINT ( 'NONE',  ( 0.0000000000000000000, -10.00699999999999800, -9.999928932188169000 ) ) ;
#234 = ORIENTED_EDGE ( 'NONE', *, *, #14, .F. ) ;
#235 = AXIS2_PLACEMENT_3D ( 'NONE', #244, #147, #181 ) ;
#236 = CARTESIAN_POINT ( 'NONE',  ( 10.00000000000000000, 0.0000000000000000000, 0.0000000000000000000 ) ) ;
#237 = LINE ( 'NONE', #132, #106 ) ;
#238 = VERTEX_POINT ( 'NONE', #312 ) ;
#239 = APPROVAL_DATE_TIME ( #255, #124 ) ;
#240 = EDGE_CURVE ( 'NONE', #71, #280, #73, .T. ) ;
#241 = DIRECTION ( 'NONE',  ( -1.000000000000000000, -0.0000000000000000000, -0.0000000000000000000 ) ) ;
#242 = ORIENTED_EDGE ( 'NONE', *, *, #240, .T. ) ;
#243 = DIRECTION ( 'NONE',  ( 0.0000000000000000000, -0.7071067811865463500, -0.7071067811865487900 ) ) ;
#244 = CARTESIAN_POINT ( 'NONE',  ( 10.00000000000000000, -3.256851647291259000E-019, -10.00700000000000000 ) ) ;
#245 = CARTESIAN_POINT ( 'NONE',  ( 10.00000000000000000, 0.0000000000000000000, 0.0000000000000000000 ) ) ;
#246 = AXIS2_PLACEMENT_3D ( 'NONE', #177, #75, #101 ) ;
#247 = PERSON_AND_ORGANIZATION ( #281, #91 ) ;
#248 = CARTESIAN_POINT ( 'NONE',  ( 10.00000000000000000, -3.256851647294266800E-019, -10.00700000000000000 ) ) ;
#249 = ORIENTED_EDGE ( 'NONE', *, *, #59, .T. ) ;
#250 = CARTESIAN_POINT ( 'NONE',  ( 0.0000000000000000000, -3.256851647294266800E-019, -10.00700000000000000 ) ) ;
#251 = ADVANCED_FACE ( 'NONE', ( #317 ), #127, .F. ) ;
#252 = APPROVAL ( #115, 'UNSPECIFIED' ) ;
#253 = VERTEX_POINT ( 'NONE', #248 ) ;
#254 = CARTESIAN_POINT ( 'NONE',  ( 10.00000000000000000, -3.256851647291259000E-019, -10.00700000000000000 ) ) ;
#255 = DATE_AND_TIME ( #3, #269 ) ;
#256 = AXIS2_PLACEMENT_3D ( 'NONE', #236, #125, #307 ) ;
#257 = DATE_AND_TIME ( #315, #320 ) ;
#258 = EDGE_CURVE ( 'NONE', #253, #112, #87, .T. ) ;
#259 = FACE_OUTER_BOUND ( 'NONE', #136, .T. ) ;
#260 = ORIENTED_EDGE ( 'NONE', *, *, #118, .T. ) ;
#261 = EDGE_LOOP ( 'NONE', ( #98, #88, #211 ) ) ;
#262 = APPLICATION_PROTOCOL_DEFINITION ( 'international standard', 'config_control_design', 1994, #297 ) ;
#263 = CARTESIAN_POINT ( 'NONE',  ( 0.0000000000000000000, -3.256851647291259000E-019, -10.00700000000000000 ) ) ;
#264 = DIRECTION ( 'NONE',  ( -0.0000000000000000000, 1.000000000000000000, 1.733510018963532700E-016 ) ) ;
#265 = VECTOR ( 'NONE', #107, 1000.000000000000000 ) ;
#266 = CARTESIAN_POINT ( 'NONE',  ( 0.0000000000000000000, -5.007035533905932900, -4.999964466094084500 ) ) ;
#267 = DIRECTION ( 'NONE',  ( -1.000000000000000000, 0.0000000000000000000, 0.0000000000000000000 ) ) ;
#268 = DIRECTION ( 'NONE',  ( -0.0000000000000000000, 3.254573445882149400E-020, 1.000000000000000000 ) ) ;
#269 = LOCAL_TIME ( 10, 12, 31.00000000000000000, #89 ) ;
#270 = EDGE_CURVE ( 'NONE', #238, #222, #82, .T. ) ;
#271 = ORIENTED_EDGE ( 'NONE', *, *, #129, .T. ) ;
#272 = LINE ( 'NONE', #170, #60 ) ;
#273 = ADVANCED_FACE ( 'NONE', ( #8 ), #160, .T. ) ;
#274 = APPROVAL_ROLE ( '' ) ;
#275 = ORIENTED_EDGE ( 'NONE', *, *, #318, .F. ) ;
#276 = VECTOR ( 'NONE', #121, 1000.000000000000000 ) ;
#277 = EDGE_LOOP ( 'NONE', ( #105, #11, #249, #306 ) ) ;
#278 = EDGE_CURVE ( 'NONE', #253, #280, #182, .T. ) ;
#279 = EDGE_LOOP ( 'NONE', ( #175, #197, #305 ) ) ;
#280 = VERTEX_POINT ( 'NONE', #47 ) ;
#281 = PERSON ( 'UNSPECIFIED', 'UNSPECIFIED', 'UNSPECIFIED', ('UNSPECIFIED'), ('UNSPECIFIED'), ('UNSPECIFIED') ) ;
#282 = APPROVAL_PERSON_ORGANIZATION ( #247, #252, #85 ) ;
#283 = ORIENTED_EDGE ( 'NONE', *, *, #51, .F. ) ;
#284 = VECTOR ( 'NONE', #293, 1000.000000000000000 ) ;
#285 = PERSON_AND_ORGANIZATION ( #281, #91 ) ;
#286 = DIRECTION ( 'NONE',  ( 0.0000000000000000000, 0.7071067811865487900, -0.7071067811865463500 ) ) ;
#287 = DIRECTION ( 'NONE',  ( 0.0000000000000000000, -0.7071067811865462400, -0.7071067811865489100 ) ) ;
#288 = CARTESIAN_POINT ( 'NONE',  ( 10.00000000000000000, -10.00699999999999800, -9.999928932188167300 ) ) ;
#289 = ORIENTED_EDGE ( 'NONE', *, *, #232, .F. ) ;
#290 = FACE_OUTER_BOUND ( 'NONE', #67, .T. ) ;
#291 = CARTESIAN_POINT ( 'NONE',  ( 0.0000000000000000000, -1.150665476726615900E-022, -0.007071067811866367000 ) ) ;
#292 = DIRECTION ( 'NONE',  ( -1.000000000000000000, 0.0000000000000000000, 0.0000000000000000000 ) ) ;
#293 = DIRECTION ( 'NONE',  ( -1.000000000000000000, -0.0000000000000000000, -0.0000000000000000000 ) ) ;
#294 = APPROVAL_ROLE ( '' ) ;
#295 = DIRECTION ( 'NONE',  ( 1.000000000000000000, 0.0000000000000000000, 0.0000000000000000000 ) ) ;
#296 = EDGE_CURVE ( 'NONE', #163, #216, #9, .T. ) ;
#297 = APPLICATION_CONTEXT ( 'configuration controlled 3d designs of mechanical parts and assemblies' ) ;
#298 = CARTESIAN_POINT ( 'NONE',  ( 0.0000000000000000000, -3.256851647294266800E-019, -10.00700000000000000 ) ) ;
#299 = ORIENTED_EDGE ( 'NONE', *, *, #258, .F. ) ;
#300 = CARTESIAN_POINT ( 'NONE',  ( 0.0000000000000000000, -3.256851647291259000E-019, -10.00700000000000000 ) ) ;
#301 = CARTESIAN_POINT ( 'NONE',  ( 0.0000000000000000000, -10.00700000000000000, -1.225504051906756400E-015 ) ) ;
#302 =( GEOMETRIC_REPRESENTATION_CONTEXT ( 3 ) GLOBAL_UNCERTAINTY_ASSIGNED_CONTEXT ( ( #158 ) ) GLOBAL_UNIT_ASSIGNED_CONTEXT ( ( #131, #198, #49 ) ) REPRESENTATION_CONTEXT ( 'NONE', 'WORKASPACE' ) );
#303 = PLANE ( 'NONE',  #19 ) ;
#304 = AXIS2_PLACEMENT_3D ( 'NONE', #17, #264, #13 ) ;
#305 = ORIENTED_EDGE ( 'NONE', *, *, #118, .F. ) ;
#306 = ORIENTED_EDGE ( 'NONE', *, *, #97, .T. ) ;
#307 = DIRECTION ( 'NONE',  ( 0.0000000000000000000, -3.254573445882149400E-020, -1.000000000000000000 ) ) ;
#308 = ORIENTED_EDGE ( 'NONE', *, *, #318, .T. ) ;
#309 = VECTOR ( 'NONE', #311, 1000.000000000000000 ) ;
#310 = CARTESIAN_POINT ( 'NONE',  ( 10.00000000000000000, -3.256851647294266800E-019, -10.00700000000000000 ) ) ;
#311 = DIRECTION ( 'NONE',  ( 0.0000000000000000000, -0.7071067811865463500, -0.7071067811865487900 ) ) ;
#312 = CARTESIAN_POINT ( 'NONE',  ( 0.0000000000000000000, -9.999928932188096200, -10.00700000000000100 ) ) ;
#313 = ORIENTED_EDGE ( 'NONE', *, *, #270, .F. ) ;
#314 = DATE_TIME_ROLE ( 'classification_date' ) ;
#315 = CALENDAR_DATE ( 2017, 31, 1 ) ;
#316 = ADVANCED_FACE ( 'NONE', ( #259 ), #137, .T. ) ;
#317 = FACE_OUTER_BOUND ( 'NONE', #277, .T. ) ;
#318 = EDGE_CURVE ( 'NONE', #130, #171, #72, .T. ) ;
#319 = ORIENTED_EDGE ( 'NONE', *, *, #240, .F. ) ;
#320 = LOCAL_TIME ( 10, 12, 31.00000000000000000, #77 ) ;
#321 = CARTESIAN_POINT ( 'NONE',  ( 10.00000000000000000, 0.0000000000000000000, 0.0000000000000000000 ) ) ;
ENDSEC;
END-ISO-10303-21;
