ISO-10303-21;
HEADER;
FILE_DESCRIPTION (( 'STEP AP203' ),
    '1' );
FILE_NAME ('43632_Default.step',
    '2017-04-12T17:27:42',
    ( '' ),
    ( '' ),
    'SwSTEP 2.0',
    'SolidWorks 2016',
    '' );
FILE_SCHEMA (( 'CONFIG_CONTROL_DESIGN' ));
ENDSEC;

DATA;
#1 = CARTESIAN_POINT ( 'NONE',  ( 0.0000000000000000000, 0.0000000000000000000, -0.2500000000000000000 ) ) ;
#2 = COORDINATED_UNIVERSAL_TIME_OFFSET ( 5, 0, .BEHIND. ) ;
#3 = ADVANCED_FACE ( 'NONE', ( #163 ), #98, .F. ) ;
#4 = DIRECTION ( 'NONE',  ( 0.0000000000000000000, 0.0000000000000000000, 1.000000000000000000 ) ) ;
#5 = CC_DESIGN_APPROVAL ( #88, ( #7 ) ) ;
#6 = CIRCLE ( 'NONE', #25, 6.500000000000000900 ) ;
#7 = PRODUCT_DEFINITION_FORMATION_WITH_SPECIFIED_SOURCE ( 'ANY', '', #166, .NOT_KNOWN. ) ;
#8 = APPROVAL_PERSON_ORGANIZATION ( #36, #56, #16 ) ;
#9 = CARTESIAN_POINT ( 'NONE',  ( -6.500000000000000900, 0.0000000000000000000, 0.2500000000000000000 ) ) ;
#10 = EDGE_CURVE ( 'NONE', #19, #20, #6, .T. ) ;
#11 = AXIS2_PLACEMENT_3D ( 'NONE', #78, #68, #50 ) ;
#12 = EDGE_CURVE ( 'NONE', #84, #134, #148, .T. ) ;
#13 = CARTESIAN_POINT ( 'NONE',  ( 0.0000000000000000000, 0.0000000000000000000, -0.2500000000000000000 ) ) ;
#14 = ORIENTED_EDGE ( 'NONE', *, *, #42, .F. ) ;
#15 = PERSON_AND_ORGANIZATION ( #82, #61 ) ;
#16 = APPROVAL_ROLE ( '' ) ;
#17 = EDGE_CURVE ( 'NONE', #19, #84, #121, .T. ) ;
#18 = PRODUCT_DEFINITION ( 'UNKNOWN', '', #7, #86 ) ;
#19 = VERTEX_POINT ( 'NONE', #145 ) ;
#20 = VERTEX_POINT ( 'NONE', #144 ) ;
#21 = COORDINATED_UNIVERSAL_TIME_OFFSET ( 5, 0, .BEHIND. ) ;
#22 = CARTESIAN_POINT ( 'NONE',  ( 0.0000000000000000000, 0.0000000000000000000, -0.2500000000000000000 ) ) ;
#23 = ORIENTED_EDGE ( 'NONE', *, *, #96, .T. ) ;
#24 = VECTOR ( 'NONE', #97, 1000.000000000000000 ) ;
#25 = AXIS2_PLACEMENT_3D ( 'NONE', #90, #110, #80 ) ;
#26 = SECURITY_CLASSIFICATION_LEVEL ( 'unclassified' ) ;
#27 = CARTESIAN_POINT ( 'NONE',  ( 6.500000000000000900, 7.960204194457796500E-016, -0.2500000000000000000 ) ) ;
#28 = PERSON_AND_ORGANIZATION_ROLE ( 'design_supplier' ) ;
#29 = PERSON_AND_ORGANIZATION ( #82, #61 ) ;
#30 =( LENGTH_UNIT ( ) NAMED_UNIT ( * ) SI_UNIT ( .MILLI., .METRE. ) );
#31 = AXIS2_PLACEMENT_3D ( 'NONE', #22, #48, #55 ) ;
#32 = APPROVAL_PERSON_ORGANIZATION ( #109, #73, #34 ) ;
#33 = LOCAL_TIME ( 13, 27, 42.00000000000000000, #21 ) ;
#34 = APPROVAL_ROLE ( '' ) ;
#35 = AXIS2_PLACEMENT_3D ( 'NONE', #130, #4, #138 ) ;
#36 = PERSON_AND_ORGANIZATION ( #82, #61 ) ;
#37 = PERSON_AND_ORGANIZATION_ROLE ( 'classification_officer' ) ;
#38 = ORIENTED_EDGE ( 'NONE', *, *, #96, .F. ) ;
#39 = CLOSED_SHELL ( 'NONE', ( #133, #41, #95, #3 ) ) ;
#40 = ORIENTED_EDGE ( 'NONE', *, *, #169, .F. ) ;
#41 = ADVANCED_FACE ( 'NONE', ( #103 ), #173, .T. ) ;
#42 = EDGE_CURVE ( 'NONE', #20, #134, #156, .T. ) ;
#43 = ORIENTED_EDGE ( 'NONE', *, *, #12, .T. ) ;
#44 = CC_DESIGN_DATE_AND_TIME_ASSIGNMENT ( #85, #91, ( #81 ) ) ;
#45 = ADVANCED_BREP_SHAPE_REPRESENTATION ( '43632_Default', ( #132, #35 ), #123 ) ;
#46 = APPROVAL_DATE_TIME ( #115, #56 ) ;
#47 = CARTESIAN_POINT ( 'NONE',  ( -6.500000000000000900, 0.0000000000000000000, -0.2500000000000000000 ) ) ;
#48 = DIRECTION ( 'NONE',  ( 0.0000000000000000000, 0.0000000000000000000, 1.000000000000000000 ) ) ;
#49 = DIRECTION ( 'NONE',  ( 1.000000000000000000, 0.0000000000000000000, -0.0000000000000000000 ) ) ;
#50 = DIRECTION ( 'NONE',  ( 1.000000000000000000, 0.0000000000000000000, 0.0000000000000000000 ) ) ;
#51 = CC_DESIGN_PERSON_AND_ORGANIZATION_ASSIGNMENT ( #54, #37, ( #81 ) ) ;
#52 = APPROVAL_DATE_TIME ( #165, #88 ) ;
#53 = ORIENTED_EDGE ( 'NONE', *, *, #10, .T. ) ;
#54 = PERSON_AND_ORGANIZATION ( #82, #61 ) ;
#55 = DIRECTION ( 'NONE',  ( 1.000000000000000000, 0.0000000000000000000, 0.0000000000000000000 ) ) ;
#56 = APPROVAL ( #92, 'UNSPECIFIED' ) ;
#57 = COORDINATED_UNIVERSAL_TIME_OFFSET ( 5, 0, .BEHIND. ) ;
#58 = PERSON_AND_ORGANIZATION ( #82, #61 ) ;
#59 =( NAMED_UNIT ( * ) SI_UNIT ( $, .STERADIAN. ) SOLID_ANGLE_UNIT ( ) );
#60 = CARTESIAN_POINT ( 'NONE',  ( 0.0000000000000000000, 0.0000000000000000000, 0.2500000000000000000 ) ) ;
#61 = ORGANIZATION ( 'UNSPECIFIED', 'UNSPECIFIED', '' ) ;
#62 = CC_DESIGN_APPROVAL ( #56, ( #81 ) ) ;
#63 = DIRECTION ( 'NONE',  ( -0.0000000000000000000, -0.0000000000000000000, -1.000000000000000000 ) ) ;
#64 = LOCAL_TIME ( 13, 27, 42.00000000000000000, #57 ) ;
#65 = DIRECTION ( 'NONE',  ( 1.000000000000000000, 0.0000000000000000000, 0.0000000000000000000 ) ) ;
#66 = ORIENTED_EDGE ( 'NONE', *, *, #169, .T. ) ;
#67 = APPLICATION_PROTOCOL_DEFINITION ( 'international standard', 'config_control_design', 1994, #114 ) ;
#68 = DIRECTION ( 'NONE',  ( 0.0000000000000000000, 0.0000000000000000000, 1.000000000000000000 ) ) ;
#69 = AXIS2_PLACEMENT_3D ( 'NONE', #139, #135, #149 ) ;
#70 = EDGE_LOOP ( 'NONE', ( #53, #23 ) ) ;
#71 = ORIENTED_EDGE ( 'NONE', *, *, #10, .F. ) ;
#72 = CYLINDRICAL_SURFACE ( 'NONE', #69, 6.500000000000000900 ) ;
#73 = APPROVAL ( #125, 'UNSPECIFIED' ) ;
#74 = PERSON_AND_ORGANIZATION_ROLE ( 'design_owner' ) ;
#75 = PRODUCT_RELATED_PRODUCT_CATEGORY ( 'detail', '', ( #166 ) ) ;
#76 = PERSON_AND_ORGANIZATION ( #82, #61 ) ;
#77 = CALENDAR_DATE ( 2017, 12, 4 ) ;
#78 = CARTESIAN_POINT ( 'NONE',  ( 0.0000000000000000000, 0.0000000000000000000, 0.2500000000000000000 ) ) ;
#79 = ORIENTED_EDGE ( 'NONE', *, *, #12, .F. ) ;
#80 = DIRECTION ( 'NONE',  ( 1.000000000000000000, 0.0000000000000000000, 0.0000000000000000000 ) ) ;
#81 = SECURITY_CLASSIFICATION ( '', '', #26 ) ;
#82 = PERSON ( 'UNSPECIFIED', 'UNSPECIFIED', 'UNSPECIFIED', ('UNSPECIFIED'), ('UNSPECIFIED'), ('UNSPECIFIED') ) ;
#83 = CC_DESIGN_SECURITY_CLASSIFICATION ( #81, ( #7 ) ) ;
#84 = VERTEX_POINT ( 'NONE', #47 ) ;
#85 = DATE_AND_TIME ( #94, #153 ) ;
#86 = DESIGN_CONTEXT ( 'detailed design', #140, 'design' ) ;
#87 = CARTESIAN_POINT ( 'NONE',  ( 6.500000000000000900, 7.960204194457796500E-016, 0.2500000000000000000 ) ) ;
#88 = APPROVAL ( #116, 'UNSPECIFIED' ) ;
#89 = DATE_AND_TIME ( #77, #64 ) ;
#90 = CARTESIAN_POINT ( 'NONE',  ( 0.0000000000000000000, 0.0000000000000000000, 0.2500000000000000000 ) ) ;
#91 = DATE_TIME_ROLE ( 'classification_date' ) ;
#92 = APPROVAL_STATUS ( 'not_yet_approved' ) ;
#93 = PERSON_AND_ORGANIZATION_ROLE ( 'creator' ) ;
#94 = CALENDAR_DATE ( 2017, 12, 4 ) ;
#95 = ADVANCED_FACE ( 'NONE', ( #129 ), #128, .T. ) ;
#96 = EDGE_CURVE ( 'NONE', #20, #19, #141, .T. ) ;
#97 = DIRECTION ( 'NONE',  ( -0.0000000000000000000, -0.0000000000000000000, -1.000000000000000000 ) ) ;
#98 = PLANE ( 'NONE',  #107 ) ;
#99 = CC_DESIGN_APPROVAL ( #73, ( #18 ) ) ;
#100 = DIRECTION ( 'NONE',  ( 1.000000000000000000, 0.0000000000000000000, -0.0000000000000000000 ) ) ;
#101 = DATE_TIME_ROLE ( 'creation_date' ) ;
#102 = CC_DESIGN_PERSON_AND_ORGANIZATION_ASSIGNMENT ( #58, #28, ( #7 ) ) ;
#103 = FACE_OUTER_BOUND ( 'NONE', #150, .T. ) ;
#104 = DIRECTION ( 'NONE',  ( 0.0000000000000000000, 0.0000000000000000000, 1.000000000000000000 ) ) ;
#105 = ORIENTED_EDGE ( 'NONE', *, *, #17, .T. ) ;
#106 = ORIENTED_EDGE ( 'NONE', *, *, #42, .T. ) ;
#107 = AXIS2_PLACEMENT_3D ( 'NONE', #13, #104, #100 ) ;
#108 = DIRECTION ( 'NONE',  ( 0.0000000000000000000, 0.0000000000000000000, 1.000000000000000000 ) ) ;
#109 = PERSON_AND_ORGANIZATION ( #82, #61 ) ;
#110 = DIRECTION ( 'NONE',  ( 0.0000000000000000000, 0.0000000000000000000, 1.000000000000000000 ) ) ;
#111 = DIRECTION ( 'NONE',  ( -0.0000000000000000000, -0.0000000000000000000, -1.000000000000000000 ) ) ;
#112 = AXIS2_PLACEMENT_3D ( 'NONE', #60, #108, #49 ) ;
#113 =( NAMED_UNIT ( * ) PLANE_ANGLE_UNIT ( ) SI_UNIT ( $, .RADIAN. ) );
#114 = APPLICATION_CONTEXT ( 'configuration controlled 3d designs of mechanical parts and assemblies' ) ;
#115 = DATE_AND_TIME ( #142, #33 ) ;
#116 = APPROVAL_STATUS ( 'not_yet_approved' ) ;
#117 = EDGE_LOOP ( 'NONE', ( #38, #106, #66, #146 ) ) ;
#118 = PRODUCT_DEFINITION_SHAPE ( 'NONE', 'NONE',  #18 ) ;
#119 = CC_DESIGN_PERSON_AND_ORGANIZATION_ASSIGNMENT ( #29, #74, ( #166 ) ) ;
#120 = AXIS2_PLACEMENT_3D ( 'NONE', #1, #174, #65 ) ;
#121 = LINE ( 'NONE', #9, #24 ) ;
#122 = UNCERTAINTY_MEASURE_WITH_UNIT (LENGTH_MEASURE( 1.000000000000000100E-005 ), #30, 'distance_accuracy_value', 'NONE');
#123 =( GEOMETRIC_REPRESENTATION_CONTEXT ( 3 ) GLOBAL_UNCERTAINTY_ASSIGNED_CONTEXT ( ( #122 ) ) GLOBAL_UNIT_ASSIGNED_CONTEXT ( ( #30, #113, #59 ) ) REPRESENTATION_CONTEXT ( 'NONE', 'WORKASPACE' ) );
#124 = APPROVAL_DATE_TIME ( #89, #73 ) ;
#125 = APPROVAL_STATUS ( 'not_yet_approved' ) ;
#126 = COORDINATED_UNIVERSAL_TIME_OFFSET ( 5, 0, .BEHIND. ) ;
#127 = MECHANICAL_CONTEXT ( 'NONE', #114, 'mechanical' ) ;
#128 = PLANE ( 'NONE',  #112 ) ;
#129 = FACE_OUTER_BOUND ( 'NONE', #70, .T. ) ;
#130 = CARTESIAN_POINT ( 'NONE',  ( 0.0000000000000000000, 0.0000000000000000000, 0.0000000000000000000 ) ) ;
#131 = PERSON_AND_ORGANIZATION_ROLE ( 'creator' ) ;
#132 = MANIFOLD_SOLID_BREP ( 'Boss-Extrude1', #39 ) ;
#133 = ADVANCED_FACE ( 'NONE', ( #168 ), #72, .T. ) ;
#134 = VERTEX_POINT ( 'NONE', #27 ) ;
#135 = DIRECTION ( 'NONE',  ( -0.0000000000000000000, -0.0000000000000000000, -1.000000000000000000 ) ) ;
#136 = LOCAL_TIME ( 13, 27, 42.00000000000000000, #126 ) ;
#137 = SHAPE_DEFINITION_REPRESENTATION ( #118, #45 ) ;
#138 = DIRECTION ( 'NONE',  ( 1.000000000000000000, 0.0000000000000000000, 0.0000000000000000000 ) ) ;
#139 = CARTESIAN_POINT ( 'NONE',  ( 0.0000000000000000000, 0.0000000000000000000, 0.2500000000000000000 ) ) ;
#140 = APPLICATION_CONTEXT ( 'configuration controlled 3d designs of mechanical parts and assemblies' ) ;
#141 = CIRCLE ( 'NONE', #11, 6.500000000000000900 ) ;
#142 = CALENDAR_DATE ( 2017, 12, 4 ) ;
#143 = AXIS2_PLACEMENT_3D ( 'NONE', #155, #111, #161 ) ;
#144 = CARTESIAN_POINT ( 'NONE',  ( 6.500000000000000900, 7.960204194457796500E-016, 0.2500000000000000000 ) ) ;
#145 = CARTESIAN_POINT ( 'NONE',  ( -6.500000000000000900, 0.0000000000000000000, 0.2500000000000000000 ) ) ;
#146 = ORIENTED_EDGE ( 'NONE', *, *, #17, .F. ) ;
#147 = CALENDAR_DATE ( 2017, 12, 4 ) ;
#148 = CIRCLE ( 'NONE', #31, 6.500000000000000900 ) ;
#149 = DIRECTION ( 'NONE',  ( -1.000000000000000000, 0.0000000000000000000, 0.0000000000000000000 ) ) ;
#150 = EDGE_LOOP ( 'NONE', ( #14, #71, #105, #43 ) ) ;
#151 = CC_DESIGN_DATE_AND_TIME_ASSIGNMENT ( #154, #101, ( #18 ) ) ;
#152 = CALENDAR_DATE ( 2017, 12, 4 ) ;
#153 = LOCAL_TIME ( 13, 27, 42.00000000000000000, #2 ) ;
#154 = DATE_AND_TIME ( #152, #136 ) ;
#155 = CARTESIAN_POINT ( 'NONE',  ( 0.0000000000000000000, 0.0000000000000000000, 0.2500000000000000000 ) ) ;
#156 = LINE ( 'NONE', #87, #172 ) ;
#157 = CIRCLE ( 'NONE', #120, 6.500000000000000900 ) ;
#158 = LOCAL_TIME ( 13, 27, 42.00000000000000000, #164 ) ;
#159 = APPROVAL_ROLE ( '' ) ;
#160 = PERSON_AND_ORGANIZATION ( #82, #61 ) ;
#161 = DIRECTION ( 'NONE',  ( -1.000000000000000000, 0.0000000000000000000, 0.0000000000000000000 ) ) ;
#162 = CC_DESIGN_PERSON_AND_ORGANIZATION_ASSIGNMENT ( #76, #131, ( #18 ) ) ;
#163 = FACE_OUTER_BOUND ( 'NONE', #170, .T. ) ;
#164 = COORDINATED_UNIVERSAL_TIME_OFFSET ( 5, 0, .BEHIND. ) ;
#165 = DATE_AND_TIME ( #147, #158 ) ;
#166 = PRODUCT ( '43632_Default', '43632_Default', '', ( #127 ) ) ;
#167 = APPROVAL_PERSON_ORGANIZATION ( #160, #88, #159 ) ;
#168 = FACE_OUTER_BOUND ( 'NONE', #117, .T. ) ;
#169 = EDGE_CURVE ( 'NONE', #134, #84, #157, .T. ) ;
#170 = EDGE_LOOP ( 'NONE', ( #79, #40 ) ) ;
#171 = CC_DESIGN_PERSON_AND_ORGANIZATION_ASSIGNMENT ( #15, #93, ( #7 ) ) ;
#172 = VECTOR ( 'NONE', #63, 1000.000000000000000 ) ;
#173 = CYLINDRICAL_SURFACE ( 'NONE', #143, 6.500000000000000900 ) ;
#174 = DIRECTION ( 'NONE',  ( 0.0000000000000000000, 0.0000000000000000000, 1.000000000000000000 ) ) ;
#175 = APPLICATION_PROTOCOL_DEFINITION ( 'international standard', 'config_control_design', 1994, #140 ) ;
ENDSEC;
END-ISO-10303-21;
