ISO-10303-21;
HEADER;
FILE_DESCRIPTION (( 'STEP AP203' ),
    '1' );
FILE_NAME ('Web Model 66184.STEP',
    '2017-01-31T19:33:42',
    ( '' ),
    ( '' ),
    'SwSTEP 2.0',
    'SolidWorks 2016',
    '' );
FILE_SCHEMA (( 'CONFIG_CONTROL_DESIGN' ));
ENDSEC;

DATA;
#1 = EDGE_LOOP ( 'NONE', ( #74, #87 ) ) ;
#2 = LOCAL_TIME ( 14, 33, 42.00000000000000000, #155 ) ;
#3 = CARTESIAN_POINT ( 'NONE',  ( 0.0000000000000000000, 0.0000000000000000000, 0.0000000000000000000 ) ) ;
#4 = DIRECTION ( 'NONE',  ( -1.000000000000000000, 0.0000000000000000000, 0.0000000000000000000 ) ) ;
#5 = APPROVAL ( #80, 'UNSPECIFIED' ) ;
#6 = CARTESIAN_POINT ( 'NONE',  ( -2.499999999999998700, 0.0000000000000000000, 0.2000000000000000100 ) ) ;
#7 = PERSON ( 'UNSPECIFIED', 'UNSPECIFIED', 'UNSPECIFIED', ('UNSPECIFIED'), ('UNSPECIFIED'), ('UNSPECIFIED') ) ;
#8 = PRODUCT_DEFINITION_SHAPE ( 'NONE', 'NONE',  #138 ) ;
#9 = APPLICATION_CONTEXT ( 'configuration controlled 3d designs of mechanical parts and assemblies' ) ;
#10 = PERSON_AND_ORGANIZATION_ROLE ( 'creator' ) ;
#11 = ORIENTED_EDGE ( 'NONE', *, *, #60, .T. ) ;
#12 = EDGE_CURVE ( 'NONE', #165, #43, #148, .T. ) ;
#13 = DATE_AND_TIME ( #92, #48 ) ;
#14 = APPROVAL_PERSON_ORGANIZATION ( #126, #147, #133 ) ;
#15 = CARTESIAN_POINT ( 'NONE',  ( 0.0000000000000000000, 0.0000000000000000000, 0.2000000000000000100 ) ) ;
#16 = DIRECTION ( 'NONE',  ( 0.0000000000000000000, 0.0000000000000000000, 1.000000000000000000 ) ) ;
#17 = AXIS2_PLACEMENT_3D ( 'NONE', #75, #130, #4 ) ;
#18 = DIRECTION ( 'NONE',  ( 0.0000000000000000000, 0.0000000000000000000, 1.000000000000000000 ) ) ;
#19 = APPLICATION_CONTEXT ( 'configuration controlled 3d designs of mechanical parts and assemblies' ) ;
#20 = FACE_OUTER_BOUND ( 'NONE', #28, .T. ) ;
#21 = APPROVAL_DATE_TIME ( #103, #5 ) ;
#22 = ORIENTED_EDGE ( 'NONE', *, *, #70, .T. ) ;
#23 = CC_DESIGN_PERSON_AND_ORGANIZATION_ASSIGNMENT ( #154, #33, ( #140 ) ) ;
#24 = ORIENTED_EDGE ( 'NONE', *, *, #37, .F. ) ;
#25 = UNCERTAINTY_MEASURE_WITH_UNIT (LENGTH_MEASURE( 1.000000000000000100E-005 ), #100, 'distance_accuracy_value', 'NONE');
#26 = ADVANCED_FACE ( 'NONE', ( #20 ), #61, .T. ) ;
#27 = DIRECTION ( 'NONE',  ( -0.0000000000000000000, -0.0000000000000000000, -1.000000000000000000 ) ) ;
#28 = EDGE_LOOP ( 'NONE', ( #106, #36, #11, #162 ) ) ;
#29 = CARTESIAN_POINT ( 'NONE',  ( 2.499999999999998700, 3.061616997868381700E-016, 0.2000000000000000100 ) ) ;
#30 = PLANE ( 'NONE',  #88 ) ;
#31 = SECURITY_CLASSIFICATION_LEVEL ( 'unclassified' ) ;
#32 = CALENDAR_DATE ( 2017, 31, 1 ) ;
#33 = PERSON_AND_ORGANIZATION_ROLE ( 'creator' ) ;
#34 = CC_DESIGN_DATE_AND_TIME_ASSIGNMENT ( #151, #146, ( #138 ) ) ;
#35 = APPLICATION_PROTOCOL_DEFINITION ( 'international standard', 'config_control_design', 1994, #19 ) ;
#36 = ORIENTED_EDGE ( 'NONE', *, *, #79, .T. ) ;
#37 = EDGE_CURVE ( 'NONE', #165, #172, #41, .T. ) ;
#38 = LINE ( 'NONE', #141, #118 ) ;
#39 = DESIGN_CONTEXT ( 'detailed design', #19, 'design' ) ;
#40 = COORDINATED_UNIVERSAL_TIME_OFFSET ( 5, 0, .BEHIND. ) ;
#41 = CIRCLE ( 'NONE', #52, 2.499999999999998700 ) ;
#42 = CC_DESIGN_APPROVAL ( #5, ( #140 ) ) ;
#43 = VERTEX_POINT ( 'NONE', #153 ) ;
#44 = PLANE ( 'NONE',  #76 ) ;
#45 = DIRECTION ( 'NONE',  ( 0.0000000000000000000, 0.0000000000000000000, 1.000000000000000000 ) ) ;
#46 = CARTESIAN_POINT ( 'NONE',  ( 0.0000000000000000000, 0.0000000000000000000, 0.2000000000000000100 ) ) ;
#47 = AXIS2_PLACEMENT_3D ( 'NONE', #3, #58, #166 ) ;
#48 = LOCAL_TIME ( 14, 33, 42.00000000000000000, #117 ) ;
#49 =( NAMED_UNIT ( * ) SI_UNIT ( $, .STERADIAN. ) SOLID_ANGLE_UNIT ( ) );
#50 = SHAPE_DEFINITION_REPRESENTATION ( #8, #136 ) ;
#51 = APPROVAL_PERSON_ORGANIZATION ( #163, #73, #112 ) ;
#52 = AXIS2_PLACEMENT_3D ( 'NONE', #15, #18, #129 ) ;
#53 = ADVANCED_FACE ( 'NONE', ( #175 ), #44, .F. ) ;
#54 = EDGE_LOOP ( 'NONE', ( #94, #24, #66, #22 ) ) ;
#55 = DIRECTION ( 'NONE',  ( 0.0000000000000000000, 0.0000000000000000000, 1.000000000000000000 ) ) ;
#56 = DIRECTION ( 'NONE',  ( 0.0000000000000000000, 0.0000000000000000000, 1.000000000000000000 ) ) ;
#57 = CALENDAR_DATE ( 2017, 31, 1 ) ;
#58 = DIRECTION ( 'NONE',  ( 0.0000000000000000000, 0.0000000000000000000, 1.000000000000000000 ) ) ;
#59 = APPROVAL_ROLE ( '' ) ;
#60 = EDGE_CURVE ( 'NONE', #120, #43, #137, .T. ) ;
#61 = CYLINDRICAL_SURFACE ( 'NONE', #17, 2.499999999999998700 ) ;
#62 = DATE_TIME_ROLE ( 'classification_date' ) ;
#63 = CC_DESIGN_PERSON_AND_ORGANIZATION_ASSIGNMENT ( #149, #110, ( #140 ) ) ;
#64 = CIRCLE ( 'NONE', #124, 2.499999999999998700 ) ;
#65 = APPROVAL_PERSON_ORGANIZATION ( #111, #5, #59 ) ;
#66 = ORIENTED_EDGE ( 'NONE', *, *, #12, .T. ) ;
#67 = EDGE_CURVE ( 'NONE', #172, #165, #64, .T. ) ;
#68 = CALENDAR_DATE ( 2017, 31, 1 ) ;
#69 = LOCAL_TIME ( 14, 33, 42.00000000000000000, #173 ) ;
#70 = EDGE_CURVE ( 'NONE', #43, #120, #128, .T. ) ;
#71 = ADVANCED_FACE ( 'NONE', ( #99 ), #30, .T. ) ;
#72 = DIRECTION ( 'NONE',  ( 1.000000000000000000, 0.0000000000000000000, -0.0000000000000000000 ) ) ;
#73 = APPROVAL ( #168, 'UNSPECIFIED' ) ;
#74 = ORIENTED_EDGE ( 'NONE', *, *, #37, .T. ) ;
#75 = CARTESIAN_POINT ( 'NONE',  ( 0.0000000000000000000, 0.0000000000000000000, 0.2000000000000000100 ) ) ;
#76 = AXIS2_PLACEMENT_3D ( 'NONE', #77, #55, #72 ) ;
#77 = CARTESIAN_POINT ( 'NONE',  ( 0.0000000000000000000, 0.0000000000000000000, 0.0000000000000000000 ) ) ;
#78 = DIRECTION ( 'NONE',  ( 1.000000000000000000, 0.0000000000000000000, -0.0000000000000000000 ) ) ;
#79 = EDGE_CURVE ( 'NONE', #172, #120, #38, .T. ) ;
#80 = APPROVAL_STATUS ( 'not_yet_approved' ) ;
#81 = PERSON_AND_ORGANIZATION ( #7, #159 ) ;
#82 = CLOSED_SHELL ( 'NONE', ( #26, #105, #71, #53 ) ) ;
#83 = PERSON_AND_ORGANIZATION_ROLE ( 'design_owner' ) ;
#84 = AXIS2_PLACEMENT_3D ( 'NONE', #160, #85, #157 ) ;
#85 = DIRECTION ( 'NONE',  ( 0.0000000000000000000, 0.0000000000000000000, 1.000000000000000000 ) ) ;
#86 = APPROVAL_DATE_TIME ( #158, #147 ) ;
#87 = ORIENTED_EDGE ( 'NONE', *, *, #67, .T. ) ;
#88 = AXIS2_PLACEMENT_3D ( 'NONE', #46, #56, #78 ) ;
#89 = LOCAL_TIME ( 14, 33, 42.00000000000000000, #98 ) ;
#90 = CYLINDRICAL_SURFACE ( 'NONE', #97, 2.499999999999998700 ) ;
#91 = CC_DESIGN_APPROVAL ( #73, ( #96 ) ) ;
#92 = CALENDAR_DATE ( 2017, 31, 1 ) ;
#93 = DIRECTION ( 'NONE',  ( 1.000000000000000000, 0.0000000000000000000, 0.0000000000000000000 ) ) ;
#94 = ORIENTED_EDGE ( 'NONE', *, *, #79, .F. ) ;
#95 = CC_DESIGN_PERSON_AND_ORGANIZATION_ASSIGNMENT ( #170, #83, ( #121 ) ) ;
#96 = SECURITY_CLASSIFICATION ( '', '', #31 ) ;
#97 = AXIS2_PLACEMENT_3D ( 'NONE', #115, #27, #108 ) ;
#98 = COORDINATED_UNIVERSAL_TIME_OFFSET ( 5, 0, .BEHIND. ) ;
#99 = FACE_OUTER_BOUND ( 'NONE', #1, .T. ) ;
#100 =( LENGTH_UNIT ( ) NAMED_UNIT ( * ) SI_UNIT ( .MILLI., .METRE. ) );
#101 = MANIFOLD_SOLID_BREP ( 'Extrude1', #82 ) ;
#102 = ORIENTED_EDGE ( 'NONE', *, *, #60, .F. ) ;
#103 = DATE_AND_TIME ( #57, #89 ) ;
#104 = CALENDAR_DATE ( 2017, 31, 1 ) ;
#105 = ADVANCED_FACE ( 'NONE', ( #143 ), #90, .T. ) ;
#106 = ORIENTED_EDGE ( 'NONE', *, *, #67, .F. ) ;
#107 = DIRECTION ( 'NONE',  ( -0.0000000000000000000, -0.0000000000000000000, -1.000000000000000000 ) ) ;
#108 = DIRECTION ( 'NONE',  ( -1.000000000000000000, 0.0000000000000000000, 0.0000000000000000000 ) ) ;
#109 = CARTESIAN_POINT ( 'NONE',  ( 0.0000000000000000000, 0.0000000000000000000, 0.0000000000000000000 ) ) ;
#110 = PERSON_AND_ORGANIZATION_ROLE ( 'design_supplier' ) ;
#111 = PERSON_AND_ORGANIZATION ( #7, #159 ) ;
#112 = APPROVAL_ROLE ( '' ) ;
#113 = CC_DESIGN_DATE_AND_TIME_ASSIGNMENT ( #169, #62, ( #96 ) ) ;
#114 = CARTESIAN_POINT ( 'NONE',  ( -2.499999999999998700, 0.0000000000000000000, 0.2000000000000000100 ) ) ;
#115 = CARTESIAN_POINT ( 'NONE',  ( 0.0000000000000000000, 0.0000000000000000000, 0.2000000000000000100 ) ) ;
#116 = DIRECTION ( 'NONE',  ( 1.000000000000000000, 0.0000000000000000000, 0.0000000000000000000 ) ) ;
#117 = COORDINATED_UNIVERSAL_TIME_OFFSET ( 5, 0, .BEHIND. ) ;
#118 = VECTOR ( 'NONE', #107, 1000.000000000000000 ) ;
#119 = MECHANICAL_CONTEXT ( 'NONE', #9, 'mechanical' ) ;
#120 = VERTEX_POINT ( 'NONE', #167 ) ;
#121 = PRODUCT ( 'Web Model 66184', 'Web Model 66184', '', ( #119 ) ) ;
#122 = CC_DESIGN_PERSON_AND_ORGANIZATION_ASSIGNMENT ( #125, #10, ( #138 ) ) ;
#123 = APPROVAL_DATE_TIME ( #13, #73 ) ;
#124 = AXIS2_PLACEMENT_3D ( 'NONE', #144, #45, #93 ) ;
#125 = PERSON_AND_ORGANIZATION ( #7, #159 ) ;
#126 = PERSON_AND_ORGANIZATION ( #7, #159 ) ;
#127 = CC_DESIGN_SECURITY_CLASSIFICATION ( #96, ( #140 ) ) ;
#128 = CIRCLE ( 'NONE', #164, 2.499999999999998700 ) ;
#129 = DIRECTION ( 'NONE',  ( 1.000000000000000000, 0.0000000000000000000, 0.0000000000000000000 ) ) ;
#130 = DIRECTION ( 'NONE',  ( -0.0000000000000000000, -0.0000000000000000000, -1.000000000000000000 ) ) ;
#131 =( GEOMETRIC_REPRESENTATION_CONTEXT ( 3 ) GLOBAL_UNCERTAINTY_ASSIGNED_CONTEXT ( ( #25 ) ) GLOBAL_UNIT_ASSIGNED_CONTEXT ( ( #100, #156, #49 ) ) REPRESENTATION_CONTEXT ( 'NONE', 'WORKASPACE' ) );
#132 = PERSON_AND_ORGANIZATION_ROLE ( 'classification_officer' ) ;
#133 = APPROVAL_ROLE ( '' ) ;
#134 = CC_DESIGN_APPROVAL ( #147, ( #138 ) ) ;
#135 = PRODUCT_RELATED_PRODUCT_CATEGORY ( 'detail', '', ( #121 ) ) ;
#136 = ADVANCED_BREP_SHAPE_REPRESENTATION ( 'Web Model 66184', ( #101, #84 ), #131 ) ;
#137 = CIRCLE ( 'NONE', #47, 2.499999999999998700 ) ;
#138 = PRODUCT_DEFINITION ( 'UNKNOWN', '', #140, #39 ) ;
#139 = VECTOR ( 'NONE', #142, 1000.000000000000000 ) ;
#140 = PRODUCT_DEFINITION_FORMATION_WITH_SPECIFIED_SOURCE ( 'ANY', '', #121, .NOT_KNOWN. ) ;
#141 = CARTESIAN_POINT ( 'NONE',  ( 2.499999999999998700, 3.061616997868381700E-016, 0.2000000000000000100 ) ) ;
#142 = DIRECTION ( 'NONE',  ( -0.0000000000000000000, -0.0000000000000000000, -1.000000000000000000 ) ) ;
#143 = FACE_OUTER_BOUND ( 'NONE', #54, .T. ) ;
#144 = CARTESIAN_POINT ( 'NONE',  ( 0.0000000000000000000, 0.0000000000000000000, 0.2000000000000000100 ) ) ;
#145 = APPLICATION_PROTOCOL_DEFINITION ( 'international standard', 'config_control_design', 1994, #9 ) ;
#146 = DATE_TIME_ROLE ( 'creation_date' ) ;
#147 = APPROVAL ( #171, 'UNSPECIFIED' ) ;
#148 = LINE ( 'NONE', #6, #139 ) ;
#149 = PERSON_AND_ORGANIZATION ( #7, #159 ) ;
#150 = CC_DESIGN_PERSON_AND_ORGANIZATION_ASSIGNMENT ( #81, #132, ( #96 ) ) ;
#151 = DATE_AND_TIME ( #104, #161 ) ;
#152 = ORIENTED_EDGE ( 'NONE', *, *, #70, .F. ) ;
#153 = CARTESIAN_POINT ( 'NONE',  ( -2.499999999999998700, 0.0000000000000000000, 0.0000000000000000000 ) ) ;
#154 = PERSON_AND_ORGANIZATION ( #7, #159 ) ;
#155 = COORDINATED_UNIVERSAL_TIME_OFFSET ( 5, 0, .BEHIND. ) ;
#156 =( NAMED_UNIT ( * ) PLANE_ANGLE_UNIT ( ) SI_UNIT ( $, .RADIAN. ) );
#157 = DIRECTION ( 'NONE',  ( 1.000000000000000000, 0.0000000000000000000, 0.0000000000000000000 ) ) ;
#158 = DATE_AND_TIME ( #68, #2 ) ;
#159 = ORGANIZATION ( 'UNSPECIFIED', 'UNSPECIFIED', '' ) ;
#160 = CARTESIAN_POINT ( 'NONE',  ( 0.0000000000000000000, 0.0000000000000000000, 0.0000000000000000000 ) ) ;
#161 = LOCAL_TIME ( 14, 33, 42.00000000000000000, #40 ) ;
#162 = ORIENTED_EDGE ( 'NONE', *, *, #12, .F. ) ;
#163 = PERSON_AND_ORGANIZATION ( #7, #159 ) ;
#164 = AXIS2_PLACEMENT_3D ( 'NONE', #109, #16, #116 ) ;
#165 = VERTEX_POINT ( 'NONE', #114 ) ;
#166 = DIRECTION ( 'NONE',  ( 1.000000000000000000, 0.0000000000000000000, 0.0000000000000000000 ) ) ;
#167 = CARTESIAN_POINT ( 'NONE',  ( 2.499999999999998700, 3.061616997868381700E-016, 0.0000000000000000000 ) ) ;
#168 = APPROVAL_STATUS ( 'not_yet_approved' ) ;
#169 = DATE_AND_TIME ( #32, #69 ) ;
#170 = PERSON_AND_ORGANIZATION ( #7, #159 ) ;
#171 = APPROVAL_STATUS ( 'not_yet_approved' ) ;
#172 = VERTEX_POINT ( 'NONE', #29 ) ;
#173 = COORDINATED_UNIVERSAL_TIME_OFFSET ( 5, 0, .BEHIND. ) ;
#174 = EDGE_LOOP ( 'NONE', ( #152, #102 ) ) ;
#175 = FACE_OUTER_BOUND ( 'NONE', #174, .T. ) ;
ENDSEC;
END-ISO-10303-21;
