ISO-10303-21;
HEADER;
FILE_DESCRIPTION (( 'STEP AP203' ),
    '1' );
FILE_NAME ('43634_Default.step',
    '2017-04-12T17:55:21',
    ( '' ),
    ( '' ),
    'SwSTEP 2.0',
    'SolidWorks 2016',
    '' );
FILE_SCHEMA (( 'CONFIG_CONTROL_DESIGN' ));
ENDSEC;

DATA;
#1 = PERSON_AND_ORGANIZATION ( #48, #95 ) ;
#2 = APPLICATION_CONTEXT ( 'configuration controlled 3d designs of mechanical parts and assemblies' ) ;
#3 = CC_DESIGN_APPROVAL ( #165, ( #154 ) ) ;
#4 = CARTESIAN_POINT ( 'NONE',  ( 0.0000000000000000000, 0.0000000000000000000, 0.5000000000000000000 ) ) ;
#5 = CIRCLE ( 'NONE', #86, 11.00000000000000000 ) ;
#6 = PERSON_AND_ORGANIZATION ( #48, #95 ) ;
#7 = ORIENTED_EDGE ( 'NONE', *, *, #170, .F. ) ;
#8 = EDGE_CURVE ( 'NONE', #124, #25, #146, .T. ) ;
#9 = VERTEX_POINT ( 'NONE', #58 ) ;
#10 = DIRECTION ( 'NONE',  ( 0.0000000000000000000, 0.0000000000000000000, 1.000000000000000000 ) ) ;
#11 = CC_DESIGN_PERSON_AND_ORGANIZATION_ASSIGNMENT ( #1, #73, ( #154 ) ) ;
#12 = ORIENTED_EDGE ( 'NONE', *, *, #69, .T. ) ;
#13 = DIRECTION ( 'NONE',  ( -0.0000000000000000000, -0.0000000000000000000, -1.000000000000000000 ) ) ;
#14 = CARTESIAN_POINT ( 'NONE',  ( 0.0000000000000000000, 0.0000000000000000000, 0.5000000000000000000 ) ) ;
#15 = CARTESIAN_POINT ( 'NONE',  ( 11.00000000000000000, 1.347111479062088400E-015, 0.5000000000000000000 ) ) ;
#16 = DIRECTION ( 'NONE',  ( 1.000000000000000000, 0.0000000000000000000, -0.0000000000000000000 ) ) ;
#17 = EDGE_CURVE ( 'NONE', #9, #98, #5, .T. ) ;
#18 = PERSON_AND_ORGANIZATION ( #48, #95 ) ;
#19 = CC_DESIGN_DATE_AND_TIME_ASSIGNMENT ( #33, #113, ( #154 ) ) ;
#20 = ORIENTED_EDGE ( 'NONE', *, *, #144, .T. ) ;
#21 = CARTESIAN_POINT ( 'NONE',  ( 0.0000000000000000000, 0.0000000000000000000, 0.5000000000000000000 ) ) ;
#22 = CARTESIAN_POINT ( 'NONE',  ( 0.0000000000000000000, 0.0000000000000000000, 0.0000000000000000000 ) ) ;
#23 = APPLICATION_PROTOCOL_DEFINITION ( 'international standard', 'config_control_design', 1994, #129 ) ;
#24 = CARTESIAN_POINT ( 'NONE',  ( 0.0000000000000000000, 0.0000000000000000000, -0.5000000000000000000 ) ) ;
#25 = VERTEX_POINT ( 'NONE', #15 ) ;
#26 = PRODUCT_DEFINITION_FORMATION_WITH_SPECIFIED_SOURCE ( 'ANY', '', #81, .NOT_KNOWN. ) ;
#27 = CALENDAR_DATE ( 2017, 12, 4 ) ;
#28 = CARTESIAN_POINT ( 'NONE',  ( -11.00000000000000000, 0.0000000000000000000, 0.5000000000000000000 ) ) ;
#29 = CALENDAR_DATE ( 2017, 12, 4 ) ;
#30 = APPROVAL_DATE_TIME ( #168, #120 ) ;
#31 = CIRCLE ( 'NONE', #137, 11.00000000000000000 ) ;
#32 = CIRCLE ( 'NONE', #93, 11.00000000000000000 ) ;
#33 = DATE_AND_TIME ( #131, #139 ) ;
#34 = DIRECTION ( 'NONE',  ( 0.0000000000000000000, 0.0000000000000000000, 1.000000000000000000 ) ) ;
#35 = APPROVAL ( #47, 'UNSPECIFIED' ) ;
#36 = DIRECTION ( 'NONE',  ( -0.0000000000000000000, -0.0000000000000000000, -1.000000000000000000 ) ) ;
#37 = CARTESIAN_POINT ( 'NONE',  ( -11.00000000000000000, 0.0000000000000000000, 0.5000000000000000000 ) ) ;
#38 = APPROVAL_ROLE ( '' ) ;
#39 = VECTOR ( 'NONE', #36, 1000.000000000000000 ) ;
#40 = COORDINATED_UNIVERSAL_TIME_OFFSET ( 5, 0, .BEHIND. ) ;
#41 = DIRECTION ( 'NONE',  ( 1.000000000000000000, 0.0000000000000000000, 0.0000000000000000000 ) ) ;
#42 = PLANE ( 'NONE',  #145 ) ;
#43 = FACE_OUTER_BOUND ( 'NONE', #90, .T. ) ;
#44 = ORIENTED_EDGE ( 'NONE', *, *, #144, .F. ) ;
#45 = CC_DESIGN_APPROVAL ( #35, ( #26 ) ) ;
#46 = DIRECTION ( 'NONE',  ( -0.0000000000000000000, -0.0000000000000000000, -1.000000000000000000 ) ) ;
#47 = APPROVAL_STATUS ( 'not_yet_approved' ) ;
#48 = PERSON ( 'UNSPECIFIED', 'UNSPECIFIED', 'UNSPECIFIED', ('UNSPECIFIED'), ('UNSPECIFIED'), ('UNSPECIFIED') ) ;
#49 = APPROVAL_PERSON_ORGANIZATION ( #82, #165, #38 ) ;
#50 = PERSON_AND_ORGANIZATION ( #48, #95 ) ;
#51 = EDGE_LOOP ( 'NONE', ( #44, #171 ) ) ;
#52 = CC_DESIGN_PERSON_AND_ORGANIZATION_ASSIGNMENT ( #53, #102, ( #26 ) ) ;
#53 = PERSON_AND_ORGANIZATION ( #48, #95 ) ;
#54 = ORIENTED_EDGE ( 'NONE', *, *, #62, .T. ) ;
#55 = MANIFOLD_SOLID_BREP ( 'Boss-Extrude1', #57 ) ;
#56 = COORDINATED_UNIVERSAL_TIME_OFFSET ( 5, 0, .BEHIND. ) ;
#57 = CLOSED_SHELL ( 'NONE', ( #61, #110, #156, #173 ) ) ;
#58 = CARTESIAN_POINT ( 'NONE',  ( 11.00000000000000000, 1.347111479062088400E-015, -0.5000000000000000000 ) ) ;
#59 = ORIENTED_EDGE ( 'NONE', *, *, #69, .F. ) ;
#60 = CC_DESIGN_PERSON_AND_ORGANIZATION_ASSIGNMENT ( #50, #88, ( #26 ) ) ;
#61 = ADVANCED_FACE ( 'NONE', ( #149 ), #79, .T. ) ;
#62 = EDGE_CURVE ( 'NONE', #124, #98, #163, .T. ) ;
#63 = CARTESIAN_POINT ( 'NONE',  ( 0.0000000000000000000, 0.0000000000000000000, -0.5000000000000000000 ) ) ;
#64 = APPROVAL_PERSON_ORGANIZATION ( #6, #35, #114 ) ;
#65 = CARTESIAN_POINT ( 'NONE',  ( 0.0000000000000000000, 0.0000000000000000000, 0.5000000000000000000 ) ) ;
#66 = CARTESIAN_POINT ( 'NONE',  ( 11.00000000000000000, 1.347111479062088400E-015, 0.5000000000000000000 ) ) ;
#67 = UNCERTAINTY_MEASURE_WITH_UNIT (LENGTH_MEASURE( 1.000000000000000100E-005 ), #122, 'distance_accuracy_value', 'NONE');
#68 = SECURITY_CLASSIFICATION ( '', '', #159 ) ;
#69 = EDGE_CURVE ( 'NONE', #25, #9, #104, .T. ) ;
#70 =( NAMED_UNIT ( * ) PLANE_ANGLE_UNIT ( ) SI_UNIT ( $, .RADIAN. ) );
#71 = CARTESIAN_POINT ( 'NONE',  ( -11.00000000000000000, 0.0000000000000000000, -0.5000000000000000000 ) ) ;
#72 = FACE_OUTER_BOUND ( 'NONE', #119, .T. ) ;
#73 = PERSON_AND_ORGANIZATION_ROLE ( 'creator' ) ;
#74 = DIRECTION ( 'NONE',  ( -1.000000000000000000, 0.0000000000000000000, 0.0000000000000000000 ) ) ;
#75 = APPROVAL_STATUS ( 'not_yet_approved' ) ;
#76 = COORDINATED_UNIVERSAL_TIME_OFFSET ( 5, 0, .BEHIND. ) ;
#77 = CC_DESIGN_PERSON_AND_ORGANIZATION_ASSIGNMENT ( #18, #157, ( #68 ) ) ;
#78 = AXIS2_PLACEMENT_3D ( 'NONE', #14, #10, #41 ) ;
#79 = CYLINDRICAL_SURFACE ( 'NONE', #111, 11.00000000000000000 ) ;
#80 = DESIGN_CONTEXT ( 'detailed design', #2, 'design' ) ;
#81 = PRODUCT ( '43634_Default', '43634_Default', '', ( #133 ) ) ;
#82 = PERSON_AND_ORGANIZATION ( #48, #95 ) ;
#83 = ORIENTED_EDGE ( 'NONE', *, *, #8, .F. ) ;
#84 = APPROVAL_DATE_TIME ( #160, #35 ) ;
#85 = ORIENTED_EDGE ( 'NONE', *, *, #8, .T. ) ;
#86 = AXIS2_PLACEMENT_3D ( 'NONE', #63, #89, #127 ) ;
#87 = APPROVAL_STATUS ( 'not_yet_approved' ) ;
#88 = PERSON_AND_ORGANIZATION_ROLE ( 'design_supplier' ) ;
#89 = DIRECTION ( 'NONE',  ( 0.0000000000000000000, 0.0000000000000000000, 1.000000000000000000 ) ) ;
#90 = EDGE_LOOP ( 'NONE', ( #59, #83, #54, #20 ) ) ;
#91 = DIRECTION ( 'NONE',  ( 1.000000000000000000, 0.0000000000000000000, 0.0000000000000000000 ) ) ;
#92 = PERSON_AND_ORGANIZATION ( #48, #95 ) ;
#93 = AXIS2_PLACEMENT_3D ( 'NONE', #24, #101, #108 ) ;
#94 = DATE_AND_TIME ( #27, #118 ) ;
#95 = ORGANIZATION ( 'UNSPECIFIED', 'UNSPECIFIED', '' ) ;
#96 = PRODUCT_DEFINITION_SHAPE ( 'NONE', 'NONE',  #154 ) ;
#97 = LOCAL_TIME ( 13, 55, 21.00000000000000000, #105 ) ;
#98 = VERTEX_POINT ( 'NONE', #71 ) ;
#99 = DIRECTION ( 'NONE',  ( 1.000000000000000000, 0.0000000000000000000, -0.0000000000000000000 ) ) ;
#100 = DIRECTION ( 'NONE',  ( 0.0000000000000000000, 0.0000000000000000000, 1.000000000000000000 ) ) ;
#101 = DIRECTION ( 'NONE',  ( 0.0000000000000000000, 0.0000000000000000000, 1.000000000000000000 ) ) ;
#102 = PERSON_AND_ORGANIZATION_ROLE ( 'creator' ) ;
#103 = DATE_TIME_ROLE ( 'classification_date' ) ;
#104 = LINE ( 'NONE', #66, #39 ) ;
#105 = COORDINATED_UNIVERSAL_TIME_OFFSET ( 5, 0, .BEHIND. ) ;
#106 = ORIENTED_EDGE ( 'NONE', *, *, #62, .F. ) ;
#107 = DATE_AND_TIME ( #117, #150 ) ;
#108 = DIRECTION ( 'NONE',  ( 1.000000000000000000, 0.0000000000000000000, 0.0000000000000000000 ) ) ;
#109 = CC_DESIGN_DATE_AND_TIME_ASSIGNMENT ( #94, #103, ( #68 ) ) ;
#110 = ADVANCED_FACE ( 'NONE', ( #43 ), #128, .T. ) ;
#111 = AXIS2_PLACEMENT_3D ( 'NONE', #4, #13, #123 ) ;
#112 = PERSON_AND_ORGANIZATION_ROLE ( 'design_owner' ) ;
#113 = DATE_TIME_ROLE ( 'creation_date' ) ;
#114 = APPROVAL_ROLE ( '' ) ;
#115 = APPROVAL_ROLE ( '' ) ;
#116 = DIRECTION ( 'NONE',  ( 0.0000000000000000000, 0.0000000000000000000, 1.000000000000000000 ) ) ;
#117 = CALENDAR_DATE ( 2017, 12, 4 ) ;
#118 = LOCAL_TIME ( 13, 55, 21.00000000000000000, #155 ) ;
#119 = EDGE_LOOP ( 'NONE', ( #85, #161 ) ) ;
#120 = APPROVAL ( #75, 'UNSPECIFIED' ) ;
#121 = AXIS2_PLACEMENT_3D ( 'NONE', #65, #46, #74 ) ;
#122 =( LENGTH_UNIT ( ) NAMED_UNIT ( * ) SI_UNIT ( .MILLI., .METRE. ) );
#123 = DIRECTION ( 'NONE',  ( -1.000000000000000000, 0.0000000000000000000, 0.0000000000000000000 ) ) ;
#124 = VERTEX_POINT ( 'NONE', #28 ) ;
#125 = DIRECTION ( 'NONE',  ( -0.0000000000000000000, -0.0000000000000000000, -1.000000000000000000 ) ) ;
#126 = APPROVAL_PERSON_ORGANIZATION ( #92, #120, #115 ) ;
#127 = DIRECTION ( 'NONE',  ( 1.000000000000000000, 0.0000000000000000000, 0.0000000000000000000 ) ) ;
#128 = CYLINDRICAL_SURFACE ( 'NONE', #121, 11.00000000000000000 ) ;
#129 = APPLICATION_CONTEXT ( 'configuration controlled 3d designs of mechanical parts and assemblies' ) ;
#130 = DIRECTION ( 'NONE',  ( 0.0000000000000000000, 0.0000000000000000000, 1.000000000000000000 ) ) ;
#131 = CALENDAR_DATE ( 2017, 12, 4 ) ;
#132 = EDGE_LOOP ( 'NONE', ( #7, #12, #164, #106 ) ) ;
#133 = MECHANICAL_CONTEXT ( 'NONE', #129, 'mechanical' ) ;
#134 = CC_DESIGN_APPROVAL ( #120, ( #68 ) ) ;
#135 = CALENDAR_DATE ( 2017, 12, 4 ) ;
#136 = FACE_OUTER_BOUND ( 'NONE', #51, .T. ) ;
#137 = AXIS2_PLACEMENT_3D ( 'NONE', #138, #116, #169 ) ;
#138 = CARTESIAN_POINT ( 'NONE',  ( 0.0000000000000000000, 0.0000000000000000000, 0.5000000000000000000 ) ) ;
#139 = LOCAL_TIME ( 13, 55, 21.00000000000000000, #40 ) ;
#140 = AXIS2_PLACEMENT_3D ( 'NONE', #22, #100, #91 ) ;
#141 = VECTOR ( 'NONE', #125, 1000.000000000000000 ) ;
#142 = APPROVAL_DATE_TIME ( #107, #165 ) ;
#143 = CC_DESIGN_SECURITY_CLASSIFICATION ( #68, ( #26 ) ) ;
#144 = EDGE_CURVE ( 'NONE', #98, #9, #32, .T. ) ;
#145 = AXIS2_PLACEMENT_3D ( 'NONE', #21, #130, #99 ) ;
#146 = CIRCLE ( 'NONE', #78, 11.00000000000000000 ) ;
#147 = APPLICATION_PROTOCOL_DEFINITION ( 'international standard', 'config_control_design', 1994, #2 ) ;
#148 = CC_DESIGN_PERSON_AND_ORGANIZATION_ASSIGNMENT ( #153, #112, ( #81 ) ) ;
#149 = FACE_OUTER_BOUND ( 'NONE', #132, .T. ) ;
#150 = LOCAL_TIME ( 13, 55, 21.00000000000000000, #76 ) ;
#151 = PRODUCT_RELATED_PRODUCT_CATEGORY ( 'detail', '', ( #81 ) ) ;
#152 = ADVANCED_BREP_SHAPE_REPRESENTATION ( '43634_Default', ( #55, #140 ), #162 ) ;
#153 = PERSON_AND_ORGANIZATION ( #48, #95 ) ;
#154 = PRODUCT_DEFINITION ( 'UNKNOWN', '', #26, #80 ) ;
#155 = COORDINATED_UNIVERSAL_TIME_OFFSET ( 5, 0, .BEHIND. ) ;
#156 = ADVANCED_FACE ( 'NONE', ( #72 ), #42, .T. ) ;
#157 = PERSON_AND_ORGANIZATION_ROLE ( 'classification_officer' ) ;
#158 = CARTESIAN_POINT ( 'NONE',  ( 0.0000000000000000000, 0.0000000000000000000, -0.5000000000000000000 ) ) ;
#159 = SECURITY_CLASSIFICATION_LEVEL ( 'unclassified' ) ;
#160 = DATE_AND_TIME ( #29, #97 ) ;
#161 = ORIENTED_EDGE ( 'NONE', *, *, #170, .T. ) ;
#162 =( GEOMETRIC_REPRESENTATION_CONTEXT ( 3 ) GLOBAL_UNCERTAINTY_ASSIGNED_CONTEXT ( ( #67 ) ) GLOBAL_UNIT_ASSIGNED_CONTEXT ( ( #122, #70, #172 ) ) REPRESENTATION_CONTEXT ( 'NONE', 'WORKASPACE' ) );
#163 = LINE ( 'NONE', #37, #141 ) ;
#164 = ORIENTED_EDGE ( 'NONE', *, *, #17, .T. ) ;
#165 = APPROVAL ( #87, 'UNSPECIFIED' ) ;
#166 = LOCAL_TIME ( 13, 55, 21.00000000000000000, #56 ) ;
#167 = SHAPE_DEFINITION_REPRESENTATION ( #96, #152 ) ;
#168 = DATE_AND_TIME ( #135, #166 ) ;
#169 = DIRECTION ( 'NONE',  ( 1.000000000000000000, 0.0000000000000000000, 0.0000000000000000000 ) ) ;
#170 = EDGE_CURVE ( 'NONE', #25, #124, #31, .T. ) ;
#171 = ORIENTED_EDGE ( 'NONE', *, *, #17, .F. ) ;
#172 =( NAMED_UNIT ( * ) SI_UNIT ( $, .STERADIAN. ) SOLID_ANGLE_UNIT ( ) );
#173 = ADVANCED_FACE ( 'NONE', ( #136 ), #175, .F. ) ;
#174 = AXIS2_PLACEMENT_3D ( 'NONE', #158, #34, #16 ) ;
#175 = PLANE ( 'NONE',  #174 ) ;
ENDSEC;
END-ISO-10303-21;
