ISO-10303-21;
HEADER;
FILE_DESCRIPTION (( 'STEP AP203' ),
    '1' );
FILE_NAME ('Web Model 19841_19896.step',
    '2022-04-06T15:21:34',
    ( 'WC' ),
    ( 'Windows Central' ),
    'SwSTEP 2.0',
    'SolidWorks 2021',
    '' );
FILE_SCHEMA (( 'CONFIG_CONTROL_DESIGN' ));
ENDSEC;

DATA;
#1 = FACE_OUTER_BOUND ( 'NONE', #104, .T. ) ;
#2 = CIRCLE ( 'NONE', #40, 25.00000000000000000 ) ;
#3 = ADVANCED_FACE ( 'NONE', ( #11 ), #120, .F. ) ;
#4 = DIRECTION ( 'NONE',  ( 0.000000000000000000, 0.000000000000000000, 1.000000000000000000 ) ) ;
#5 = CC_DESIGN_APPROVAL ( #166, ( #23 ) ) ;
#6 = APPROVAL_STATUS ( 'not_yet_approved' ) ;
#7 = PERSON_AND_ORGANIZATION ( #84, #157 ) ;
#8 = UNCERTAINTY_MEASURE_WITH_UNIT (LENGTH_MEASURE( 1.000000000000000082E-05 ), #163, 'distance_accuracy_value', 'NONE');
#9 = PRODUCT_DEFINITION_FORMATION_WITH_SPECIFIED_SOURCE ( 'ANY', '', #34, .NOT_KNOWN. ) ;
#10 = AXIS2_PLACEMENT_3D ( 'NONE', #123, #27, #91 ) ;
#11 = FACE_OUTER_BOUND ( 'NONE', #118, .T. ) ;
#12 = CARTESIAN_POINT ( 'NONE',  ( 0.000000000000000000, 0.000000000000000000, 5.000000000000000000 ) ) ;
#13 = DIRECTION ( 'NONE',  ( -1.000000000000000000, 0.000000000000000000, 0.000000000000000000 ) ) ;
#14 = COORDINATED_UNIVERSAL_TIME_OFFSET ( 5, 0, .BEHIND. ) ;
#15 = DIRECTION ( 'NONE',  ( -0.000000000000000000, -0.000000000000000000, -1.000000000000000000 ) ) ;
#16 = PERSON_AND_ORGANIZATION_ROLE ( 'creator' ) ;
#17 = APPROVAL_ROLE ( '' ) ;
#18 = PERSON_AND_ORGANIZATION ( #84, #157 ) ;
#19 = CARTESIAN_POINT ( 'NONE',  ( 0.000000000000000000, 0.000000000000000000, 0.000000000000000000 ) ) ;
#20 = MANIFOLD_SOLID_BREP ( 'Boss-Extrude1', #115 ) ;
#21 = APPROVAL_DATE_TIME ( #168, #171 ) ;
#22 = LOCAL_TIME ( 11, 21, 34.00000000000000000, #149 ) ;
#23 = PRODUCT_DEFINITION ( 'UNKNOWN', '', #9, #131 ) ;
#24 = EDGE_CURVE ( 'NONE', #75, #36, #2, .T. ) ;
#25 = ORIENTED_EDGE ( 'NONE', *, *, #130, .T. ) ;
#26 = LINE ( 'NONE', #124, #89 ) ;
#27 = DIRECTION ( 'NONE',  ( 0.000000000000000000, 0.000000000000000000, 1.000000000000000000 ) ) ;
#28 = SECURITY_CLASSIFICATION ( '', '', #83 ) ;
#29 = APPROVAL_STATUS ( 'not_yet_approved' ) ;
#30 = CC_DESIGN_DATE_AND_TIME_ASSIGNMENT ( #54, #128, ( #23 ) ) ;
#31 = APPLICATION_PROTOCOL_DEFINITION ( 'international standard', 'config_control_design', 1994, #103 ) ;
#32 = DATE_AND_TIME ( #57, #22 ) ;
#33 = VECTOR ( 'NONE', #51, 1000.000000000000000 ) ;
#34 = PRODUCT ( 'Web Model 19841_19896', 'Web Model 19841_19896', '', ( #152 ) ) ;
#35 = ADVANCED_FACE ( 'NONE', ( #107 ), #133, .T. ) ;
#36 = VERTEX_POINT ( 'NONE', #42 ) ;
#37 = ORIENTED_EDGE ( 'NONE', *, *, #49, .F. ) ;
#38 = CARTESIAN_POINT ( 'NONE',  ( 0.000000000000000000, 0.000000000000000000, 5.000000000000000000 ) ) ;
#39 = COORDINATED_UNIVERSAL_TIME_OFFSET ( 5, 0, .BEHIND. ) ;
#40 = AXIS2_PLACEMENT_3D ( 'NONE', #160, #148, #121 ) ;
#41 = CC_DESIGN_SECURITY_CLASSIFICATION ( #28, ( #9 ) ) ;
#42 = CARTESIAN_POINT ( 'NONE',  ( 25.00000000000000000, 3.061616997868383043E-15, 0.000000000000000000 ) ) ;
#43 = DATE_AND_TIME ( #64, #47 ) ;
#44 = DIRECTION ( 'NONE',  ( 1.000000000000000000, 0.000000000000000000, 0.000000000000000000 ) ) ;
#45 = APPLICATION_PROTOCOL_DEFINITION ( 'international standard', 'config_control_design', 1994, #114 ) ;
#46 = AXIS2_PLACEMENT_3D ( 'NONE', #12, #15, #13 ) ;
#47 = LOCAL_TIME ( 11, 21, 34.00000000000000000, #39 ) ;
#48 = EDGE_LOOP ( 'NONE', ( #73, #145 ) ) ;
#49 = EDGE_CURVE ( 'NONE', #86, #146, #144, .T. ) ;
#50 = ORIENTED_EDGE ( 'NONE', *, *, #97, .F. ) ;
#51 = DIRECTION ( 'NONE',  ( -0.000000000000000000, -0.000000000000000000, -1.000000000000000000 ) ) ;
#52 = DIRECTION ( 'NONE',  ( 0.000000000000000000, 0.000000000000000000, 1.000000000000000000 ) ) ;
#53 = CARTESIAN_POINT ( 'NONE',  ( 25.00000000000000000, 3.061616997868383043E-15, 5.000000000000000000 ) ) ;
#54 = DATE_AND_TIME ( #112, #99 ) ;
#55 = COORDINATED_UNIVERSAL_TIME_OFFSET ( 5, 0, .BEHIND. ) ;
#56 = PERSON_AND_ORGANIZATION_ROLE ( 'creator' ) ;
#57 = CALENDAR_DATE ( 2022, 6, 4 ) ;
#58 = CC_DESIGN_PERSON_AND_ORGANIZATION_ASSIGNMENT ( #140, #56, ( #9 ) ) ;
#59 = ORIENTED_EDGE ( 'NONE', *, *, #93, .F. ) ;
#60 = ORIENTED_EDGE ( 'NONE', *, *, #130, .F. ) ;
#61 = CARTESIAN_POINT ( 'NONE',  ( 0.000000000000000000, 0.000000000000000000, 0.000000000000000000 ) ) ;
#62 = CARTESIAN_POINT ( 'NONE',  ( 0.000000000000000000, 0.000000000000000000, 5.000000000000000000 ) ) ;
#63 = APPROVAL_PERSON_ORGANIZATION ( #138, #127, #134 ) ;
#64 = CALENDAR_DATE ( 2022, 6, 4 ) ;
#65 = CYLINDRICAL_SURFACE ( 'NONE', #87, 25.00000000000000000 ) ;
#66 = APPROVAL_DATE_TIME ( #32, #127 ) ;
#67 = ADVANCED_FACE ( 'NONE', ( #1 ), #65, .T. ) ;
#68 = EDGE_CURVE ( 'NONE', #36, #75, #167, .T. ) ;
#69 = DIRECTION ( 'NONE',  ( 1.000000000000000000, 0.000000000000000000, 0.000000000000000000 ) ) ;
#70 = CC_DESIGN_PERSON_AND_ORGANIZATION_ASSIGNMENT ( #129, #159, ( #28 ) ) ;
#71 = APPROVAL_PERSON_ORGANIZATION ( #126, #171, #17 ) ;
#72 = SHAPE_DEFINITION_REPRESENTATION ( #173, #150 ) ;
#73 = ORIENTED_EDGE ( 'NONE', *, *, #93, .T. ) ;
#74 = APPROVAL_PERSON_ORGANIZATION ( #108, #166, #81 ) ;
#75 = VERTEX_POINT ( 'NONE', #125 ) ;
#76 = DIRECTION ( 'NONE',  ( 1.000000000000000000, 0.000000000000000000, -0.000000000000000000 ) ) ;
#77 = DIRECTION ( 'NONE',  ( -0.000000000000000000, -0.000000000000000000, -1.000000000000000000 ) ) ;
#78 = CARTESIAN_POINT ( 'NONE',  ( -25.00000000000000000, 0.000000000000000000, 5.000000000000000000 ) ) ;
#79 = CARTESIAN_POINT ( 'NONE',  ( 0.000000000000000000, 0.000000000000000000, 5.000000000000000000 ) ) ;
#80 = CALENDAR_DATE ( 2022, 6, 4 ) ;
#81 = APPROVAL_ROLE ( '' ) ;
#82 = LOCAL_TIME ( 11, 21, 34.00000000000000000, #55 ) ;
#83 = SECURITY_CLASSIFICATION_LEVEL ( 'unclassified' ) ;
#84 = PERSON ( 'UNSPECIFIED', 'UNSPECIFIED', 'UNSPECIFIED', ('UNSPECIFIED'), ('UNSPECIFIED'), ('UNSPECIFIED') ) ;
#85 = AXIS2_PLACEMENT_3D ( 'NONE', #38, #52, #147 ) ;
#86 = VERTEX_POINT ( 'NONE', #53 ) ;
#87 = AXIS2_PLACEMENT_3D ( 'NONE', #79, #77, #90 ) ;
#88 = EDGE_LOOP ( 'NONE', ( #37, #25, #132, #50 ) ) ;
#89 = VECTOR ( 'NONE', #165, 1000.000000000000000 ) ;
#90 = DIRECTION ( 'NONE',  ( -1.000000000000000000, 0.000000000000000000, 0.000000000000000000 ) ) ;
#91 = DIRECTION ( 'NONE',  ( 1.000000000000000000, 0.000000000000000000, 0.000000000000000000 ) ) ;
#92 = DATE_TIME_ROLE ( 'classification_date' ) ;
#93 = EDGE_CURVE ( 'NONE', #146, #86, #101, .T. ) ;
#94 = DIRECTION ( 'NONE',  ( 0.000000000000000000, 0.000000000000000000, 1.000000000000000000 ) ) ;
#95 = PRODUCT_RELATED_PRODUCT_CATEGORY ( 'detail', '', ( #34 ) ) ;
#96 =( NAMED_UNIT ( * ) SI_UNIT ( $, .STERADIAN. ) SOLID_ANGLE_UNIT ( ) );
#97 = EDGE_CURVE ( 'NONE', #146, #75, #109, .T. ) ;
#98 = ADVANCED_FACE ( 'NONE', ( #106 ), #158, .T. ) ;
#99 = LOCAL_TIME ( 11, 21, 34.00000000000000000, #14 ) ;
#100 = COORDINATED_UNIVERSAL_TIME_OFFSET ( 5, 0, .BEHIND. ) ;
#101 = CIRCLE ( 'NONE', #143, 25.00000000000000000 ) ;
#102 = CC_DESIGN_PERSON_AND_ORGANIZATION_ASSIGNMENT ( #113, #153, ( #9 ) ) ;
#103 = APPLICATION_CONTEXT ( 'configuration controlled 3d designs of mechanical parts and assemblies' ) ;
#104 = EDGE_LOOP ( 'NONE', ( #60, #59, #169, #155 ) ) ;
#105 = ORIENTED_EDGE ( 'NONE', *, *, #68, .F. ) ;
#106 = FACE_OUTER_BOUND ( 'NONE', #48, .T. ) ;
#107 = FACE_OUTER_BOUND ( 'NONE', #88, .T. ) ;
#108 = PERSON_AND_ORGANIZATION ( #84, #157 ) ;
#109 = LINE ( 'NONE', #174, #33 ) ;
#110 = APPROVAL_STATUS ( 'not_yet_approved' ) ;
#111 = CC_DESIGN_DATE_AND_TIME_ASSIGNMENT ( #43, #92, ( #28 ) ) ;
#112 = CALENDAR_DATE ( 2022, 6, 4 ) ;
#113 = PERSON_AND_ORGANIZATION ( #84, #157 ) ;
#114 = APPLICATION_CONTEXT ( 'configuration controlled 3d designs of mechanical parts and assemblies' ) ;
#115 = CLOSED_SHELL ( 'NONE', ( #35, #67, #98, #3 ) ) ;
#116 = AXIS2_PLACEMENT_3D ( 'NONE', #19, #94, #69 ) ;
#117 = CALENDAR_DATE ( 2022, 6, 4 ) ;
#118 = EDGE_LOOP ( 'NONE', ( #119, #105 ) ) ;
#119 = ORIENTED_EDGE ( 'NONE', *, *, #24, .F. ) ;
#120 = PLANE ( 'NONE',  #141 ) ;
#121 = DIRECTION ( 'NONE',  ( 1.000000000000000000, 0.000000000000000000, 0.000000000000000000 ) ) ;
#122 = CC_DESIGN_APPROVAL ( #127, ( #9 ) ) ;
#123 = CARTESIAN_POINT ( 'NONE',  ( 0.000000000000000000, 0.000000000000000000, 5.000000000000000000 ) ) ;
#124 = CARTESIAN_POINT ( 'NONE',  ( 25.00000000000000000, 3.061616997868383043E-15, 5.000000000000000000 ) ) ;
#125 = CARTESIAN_POINT ( 'NONE',  ( -25.00000000000000000, 0.000000000000000000, 0.000000000000000000 ) ) ;
#126 = PERSON_AND_ORGANIZATION ( #84, #157 ) ;
#127 = APPROVAL ( #6, 'UNSPECIFIED' ) ;
#128 = DATE_TIME_ROLE ( 'creation_date' ) ;
#129 = PERSON_AND_ORGANIZATION ( #84, #157 ) ;
#130 = EDGE_CURVE ( 'NONE', #86, #36, #26, .T. ) ;
#131 = DESIGN_CONTEXT ( 'detailed design', #114, 'design' ) ;
#132 = ORIENTED_EDGE ( 'NONE', *, *, #68, .T. ) ;
#133 = CYLINDRICAL_SURFACE ( 'NONE', #46, 25.00000000000000000 ) ;
#134 = APPROVAL_ROLE ( '' ) ;
#135 = DIRECTION ( 'NONE',  ( 1.000000000000000000, 0.000000000000000000, 0.000000000000000000 ) ) ;
#136 = CC_DESIGN_PERSON_AND_ORGANIZATION_ASSIGNMENT ( #7, #16, ( #23 ) ) ;
#137 = AXIS2_PLACEMENT_3D ( 'NONE', #61, #4, #135 ) ;
#138 = PERSON_AND_ORGANIZATION ( #84, #157 ) ;
#139 = APPROVAL_DATE_TIME ( #161, #166 ) ;
#140 = PERSON_AND_ORGANIZATION ( #84, #157 ) ;
#141 = AXIS2_PLACEMENT_3D ( 'NONE', #172, #156, #76 ) ;
#142 =( GEOMETRIC_REPRESENTATION_CONTEXT ( 3 ) GLOBAL_UNCERTAINTY_ASSIGNED_CONTEXT ( ( #8 ) ) GLOBAL_UNIT_ASSIGNED_CONTEXT ( ( #163, #164, #96 ) ) REPRESENTATION_CONTEXT ( 'NONE', 'WORKASPACE' ) );
#143 = AXIS2_PLACEMENT_3D ( 'NONE', #62, #162, #44 ) ;
#144 = CIRCLE ( 'NONE', #10, 25.00000000000000000 ) ;
#145 = ORIENTED_EDGE ( 'NONE', *, *, #49, .T. ) ;
#146 = VERTEX_POINT ( 'NONE', #78 ) ;
#147 = DIRECTION ( 'NONE',  ( 1.000000000000000000, 0.000000000000000000, -0.000000000000000000 ) ) ;
#148 = DIRECTION ( 'NONE',  ( 0.000000000000000000, 0.000000000000000000, 1.000000000000000000 ) ) ;
#149 = COORDINATED_UNIVERSAL_TIME_OFFSET ( 5, 0, .BEHIND. ) ;
#150 = ADVANCED_BREP_SHAPE_REPRESENTATION ( 'Web Model 19841_19896', ( #20, #116 ), #142 ) ;
#151 = PERSON_AND_ORGANIZATION_ROLE ( 'design_owner' ) ;
#152 = MECHANICAL_CONTEXT ( 'NONE', #103, 'mechanical' ) ;
#153 = PERSON_AND_ORGANIZATION_ROLE ( 'design_supplier' ) ;
#154 = CC_DESIGN_PERSON_AND_ORGANIZATION_ASSIGNMENT ( #18, #151, ( #34 ) ) ;
#155 = ORIENTED_EDGE ( 'NONE', *, *, #24, .T. ) ;
#156 = DIRECTION ( 'NONE',  ( 0.000000000000000000, 0.000000000000000000, 1.000000000000000000 ) ) ;
#157 = ORGANIZATION ( 'UNSPECIFIED', 'UNSPECIFIED', '' ) ;
#158 = PLANE ( 'NONE',  #85 ) ;
#159 = PERSON_AND_ORGANIZATION_ROLE ( 'classification_officer' ) ;
#160 = CARTESIAN_POINT ( 'NONE',  ( 0.000000000000000000, 0.000000000000000000, 0.000000000000000000 ) ) ;
#161 = DATE_AND_TIME ( #80, #82 ) ;
#162 = DIRECTION ( 'NONE',  ( 0.000000000000000000, 0.000000000000000000, 1.000000000000000000 ) ) ;
#163 =( LENGTH_UNIT ( ) NAMED_UNIT ( * ) SI_UNIT ( .MILLI., .METRE. ) );
#164 =( NAMED_UNIT ( * ) PLANE_ANGLE_UNIT ( ) SI_UNIT ( $, .RADIAN. ) );
#165 = DIRECTION ( 'NONE',  ( -0.000000000000000000, -0.000000000000000000, -1.000000000000000000 ) ) ;
#166 = APPROVAL ( #29, 'UNSPECIFIED' ) ;
#167 = CIRCLE ( 'NONE', #137, 25.00000000000000000 ) ;
#168 = DATE_AND_TIME ( #117, #170 ) ;
#169 = ORIENTED_EDGE ( 'NONE', *, *, #97, .T. ) ;
#170 = LOCAL_TIME ( 11, 21, 34.00000000000000000, #100 ) ;
#171 = APPROVAL ( #110, 'UNSPECIFIED' ) ;
#172 = CARTESIAN_POINT ( 'NONE',  ( 0.000000000000000000, 0.000000000000000000, 0.000000000000000000 ) ) ;
#173 = PRODUCT_DEFINITION_SHAPE ( 'NONE', 'NONE',  #23 ) ;
#174 = CARTESIAN_POINT ( 'NONE',  ( -25.00000000000000000, 0.000000000000000000, 5.000000000000000000 ) ) ;
#175 = CC_DESIGN_APPROVAL ( #171, ( #28 ) ) ;
ENDSEC;
END-ISO-10303-21;
