ISO-10303-21;
HEADER;
FILE_DESCRIPTION (( 'STEP AP203' ),
    '1' );
FILE_NAME ('TTN227577-E0W.STEP',
    '2021-02-24T20:33:38',
    ( '' ),
    ( '' ),
    'SwSTEP 2.0',
    'SolidWorks 2018',
    '' );
FILE_SCHEMA (( 'CONFIG_CONTROL_DESIGN' ));
ENDSEC;

DATA;
#1 = DIRECTION ( 'NONE',  ( -0.000000000000000000, -0.000000000000000000, 1.000000000000000000 ) ) ;
#2 = LINE ( 'NONE', #190, #228 ) ;
#3 = CARTESIAN_POINT ( 'NONE',  ( -12.13679148667595342, 3.222529864623931317, -2.916937173625651969 ) ) ;
#4 = CC_DESIGN_PERSON_AND_ORGANIZATION_ASSIGNMENT ( #107, #77, ( #226 ) ) ;
#5 = DATE_AND_TIME ( #273, #183 ) ;
#6 = ADVANCED_FACE ( 'NONE', ( #79 ), #42, .F. ) ;
#7 = CC_DESIGN_PERSON_AND_ORGANIZATION_ASSIGNMENT ( #144, #205, ( #28 ) ) ;
#8 = APPROVAL_STATUS ( 'not_yet_approved' ) ;
#9 = LOCAL_TIME ( 15, 33, 38.00000000000000000, #29 ) ;
#10 = EDGE_LOOP ( 'NONE', ( #167, #72, #131, #148, #59, #24 ) ) ;
#11 = APPROVAL_PERSON_ORGANIZATION ( #36, #202, #52 ) ;
#12 = APPROVAL ( #74, 'UNSPECIFIED' ) ;
#13 = VERTEX_POINT ( 'NONE', #165 ) ;
#14 = ORIENTED_EDGE ( 'NONE', *, *, #252, .F. ) ;
#15 = DIRECTION ( 'NONE',  ( -1.000000000000000000, -0.000000000000000000, -0.000000000000000000 ) ) ;
#16 = PRODUCT_DEFINITION_SHAPE ( 'NONE', 'NONE',  #226 ) ;
#17 = SECURITY_CLASSIFICATION ( '', '', #177 ) ;
#18 = CARTESIAN_POINT ( 'NONE',  ( -12.69999999999999929, 6.349999999999996980, 2.750000000000003109 ) ) ;
#19 = EDGE_CURVE ( 'NONE', #35, #143, #41, .T. ) ;
#20 =( LENGTH_UNIT ( ) NAMED_UNIT ( * ) SI_UNIT ( .MILLI., .METRE. ) );
#21 = CALENDAR_DATE ( 2021, 24, 2 ) ;
#22 = ORIENTED_EDGE ( 'NONE', *, *, #209, .T. ) ;
#23 = CARTESIAN_POINT ( 'NONE',  ( 12.57706715168255762, 4.312042901301575526, -1.029845238591325041 ) ) ;
#24 = ORIENTED_EDGE ( 'NONE', *, *, #19, .F. ) ;
#25 = DIRECTION ( 'NONE',  ( -1.000000000000000000, -0.000000000000000000, -0.000000000000000000 ) ) ;
#26 = MANIFOLD_SOLID_BREP ( 'TTN227587-1-solid1', #97 ) ;
#27 = ADVANCED_FACE ( 'NONE', ( #171 ), #83, .F. ) ;
#28 = PRODUCT_DEFINITION_FORMATION_WITH_SPECIFIED_SOURCE ( 'ANY', '', #198, .NOT_KNOWN. ) ;
#29 = COORDINATED_UNIVERSAL_TIME_OFFSET ( 5, 0, .BEHIND. ) ;
#30 = FACE_OUTER_BOUND ( 'NONE', #254, .T. ) ;
#31 = DIRECTION ( 'NONE',  ( 0.000000000000000000, 0.000000000000000000, 1.000000000000000000 ) ) ;
#32 = ORIENTED_EDGE ( 'NONE', *, *, #232, .F. ) ;
#33 = CC_DESIGN_PERSON_AND_ORGANIZATION_ASSIGNMENT ( #253, #73, ( #17 ) ) ;
#34 = DATE_AND_TIME ( #270, #262 ) ;
#35 = VERTEX_POINT ( 'NONE', #275 ) ;
#36 = PERSON_AND_ORGANIZATION ( #222, #50 ) ;
#37 = CARTESIAN_POINT ( 'NONE',  ( -12.69999999999999929, 6.349999999999994316, 2.499999999999991562 ) ) ;
#38 = ORIENTED_EDGE ( 'NONE', *, *, #277, .F. ) ;
#39 = CARTESIAN_POINT ( 'NONE',  ( 15.00000000000000000, 6.349999999999999645, 2.999999999999998668 ) ) ;
#40 = CARTESIAN_POINT ( 'NONE',  ( 0.000000000000000000, 6.349999999999999645, 15.45000000000000107 ) ) ;
#41 = LINE ( 'NONE', #236, #196 ) ;
#42 = PLANE ( 'NONE',  #206 ) ;
#43 = CC_DESIGN_DATE_AND_TIME_ASSIGNMENT ( #115, #224, ( #17 ) ) ;
#44 = DIRECTION ( 'NONE',  ( -0.000000000000000000, -0.000000000000000000, 1.000000000000000000 ) ) ;
#45 = CARTESIAN_POINT ( 'NONE',  ( 0.000000000000000000, 6.349999999999999645, 2.750000000000002220 ) ) ;
#46 = COORDINATED_UNIVERSAL_TIME_OFFSET ( 5, 0, .BEHIND. ) ;
#47 = ORIENTED_EDGE ( 'NONE', *, *, #166, .F. ) ;
#48 =( BOUNDED_CURVE ( )  B_SPLINE_CURVE ( 3, ( #61, #255, #122, #168 ),
 .UNSPECIFIED., .F., .F. ) 
 B_SPLINE_CURVE_WITH_KNOTS ( ( 4, 4 ),
 ( 1.570796326794897002, 1.811790738265941281 ),
 .UNSPECIFIED. ) 
 CURVE ( )  GEOMETRIC_REPRESENTATION_ITEM ( )  RATIONAL_B_SPLINE_CURVE ( ( 1.000000000000000000, 0.9951659943615830395, 0.9951659943615830395, 1.000000000000000000 ) ) 
 REPRESENTATION_ITEM ( '' )  );
#49 = CARTESIAN_POINT ( 'NONE',  ( 12.69999999999999929, 6.349999999999994316, 2.750000000000002220 ) ) ;
#50 = ORGANIZATION ( 'UNSPECIFIED', 'UNSPECIFIED', '' ) ;
#51 = DATE_TIME_ROLE ( 'creation_date' ) ;
#52 = APPROVAL_ROLE ( '' ) ;
#53 = APPLICATION_PROTOCOL_DEFINITION ( 'international standard', 'config_control_design', 1994, #179 ) ;
#54 = VECTOR ( 'NONE', #44, 1000.000000000000000 ) ;
#55 = VECTOR ( 'NONE', #103, 1000.000000000000000 ) ;
#56 = LINE ( 'NONE', #278, #54 ) ;
#57 = EDGE_CURVE ( 'NONE', #95, #108, #2, .T. ) ;
#58 = PERSON_AND_ORGANIZATION ( #222, #50 ) ;
#59 = ORIENTED_EDGE ( 'NONE', *, *, #96, .F. ) ;
#60 = DIRECTION ( 'NONE',  ( 0.000000000000000000, 0.000000000000000000, -1.000000000000000000 ) ) ;
#61 = CARTESIAN_POINT ( 'NONE',  ( -12.69999999999999929, 6.349999999999994316, 2.499999999999991562 ) ) ;
#62 = APPROVAL_PERSON_ORGANIZATION ( #58, #75, #203 ) ;
#63 = CARTESIAN_POINT ( 'NONE',  ( 15.00000000000000000, 3.174573519457050352, -3.000000000000000000 ) ) ;
#64 = ADVANCED_BREP_SHAPE_REPRESENTATION ( 'TTN227577-E0W', ( #26, #259 ), #182 ) ;
#65 = DIRECTION ( 'NONE',  ( 0.000000000000000000, -0.000000000000000000, -1.000000000000000000 ) ) ;
#66 = EDGE_CURVE ( 'NONE', #247, #161, #192, .T. ) ;
#67 = EDGE_LOOP ( 'NONE', ( #234, #187 ) ) ;
#68 = CARTESIAN_POINT ( 'NONE',  ( -12.23503592802013351, 3.270645608924001912, -2.833598259853937318 ) ) ;
#69 = ORIENTED_EDGE ( 'NONE', *, *, #277, .T. ) ;
#70 = CARTESIAN_POINT ( 'NONE',  ( -12.33298422929340887, 3.318911086754457784, -2.750000000000000444 ) ) ;
#71 = APPROVAL_STATUS ( 'not_yet_approved' ) ;
#72 = ORIENTED_EDGE ( 'NONE', *, *, #166, .T. ) ;
#73 = PERSON_AND_ORGANIZATION_ROLE ( 'classification_officer' ) ;
#74 = APPROVAL_STATUS ( 'not_yet_approved' ) ;
#75 = APPROVAL ( #71, 'UNSPECIFIED' ) ;
#76 = CIRCLE ( 'NONE', #217, 12.69999999999999929 ) ;
#77 = PERSON_AND_ORGANIZATION_ROLE ( 'creator' ) ;
#78 = ORIENTED_EDGE ( 'NONE', *, *, #214, .T. ) ;
#79 = FACE_OUTER_BOUND ( 'NONE', #67, .T. ) ;
#80 = APPROVAL_DATE_TIME ( #117, #202 ) ;
#81 = CIRCLE ( 'NONE', #118, 12.45000000000000284 ) ;
#82 = FACE_OUTER_BOUND ( 'NONE', #10, .T. ) ;
#83 = PLANE ( 'NONE',  #119 ) ;
#84 = CARTESIAN_POINT ( 'NONE',  ( 0.000000000000000000, 6.349999999999999645, -3.000000000000000444 ) ) ;
#85 = CIRCLE ( 'NONE', #138, 12.45000000000000284 ) ;
#86 = ORIENTED_EDGE ( 'NONE', *, *, #232, .T. ) ;
#87 = AXIS2_PLACEMENT_3D ( 'NONE', #63, #213, #147 ) ;
#88 = DIRECTION ( 'NONE',  ( 1.000000000000000000, 0.000000000000000000, 0.000000000000000000 ) ) ;
#89 =( BOUNDED_CURVE ( )  B_SPLINE_CURVE ( 3, ( #90, #23, #169, #199 ),
 .UNSPECIFIED., .F., .T. ) 
 B_SPLINE_CURVE_WITH_KNOTS ( ( 4, 4 ),
 ( 4.471394568913645173, 4.712388980384689674 ),
 .UNSPECIFIED. ) 
 CURVE ( )  GEOMETRIC_REPRESENTATION_ITEM ( )  RATIONAL_B_SPLINE_CURVE ( ( 1.000000000000000000, 0.9951659943615830395, 0.9951659943615830395, 1.000000000000000000 ) ) 
 REPRESENTATION_ITEM ( '' )  );
#90 = CARTESIAN_POINT ( 'NONE',  ( 12.33298422929340887, 3.318911086754457784, -2.750000000000000444 ) ) ;
#91 = FACE_OUTER_BOUND ( 'NONE', #250, .T. ) ;
#92 = ADVANCED_FACE ( 'NONE', ( #274 ), #239, .F. ) ;
#93 = EDGE_CURVE ( 'NONE', #257, #176, #116, .T. ) ;
#94 = PERSON_AND_ORGANIZATION ( #222, #50 ) ;
#95 = VERTEX_POINT ( 'NONE', #18 ) ;
#96 = EDGE_CURVE ( 'NONE', #143, #181, #48, .T. ) ;
#97 = CLOSED_SHELL ( 'NONE', ( #92, #27, #6, #139, #158, #223, #111 ) ) ;
#98 = VECTOR ( 'NONE', #109, 1000.000000000000000 ) ;
#99 = AXIS2_PLACEMENT_3D ( 'NONE', #194, #1, #88 ) ;
#100 = ORIENTED_EDGE ( 'NONE', *, *, #57, .T. ) ;
#101 = DIRECTION ( 'NONE',  ( 0.000000000000000000, -1.000000000000000000, 1.365985158626579181E-16 ) ) ;
#102 = AXIS2_PLACEMENT_3D ( 'NONE', #149, #260, #235 ) ;
#103 = DIRECTION ( 'NONE',  ( 0.7071067811865475727, 0.000000000000000000, -0.7071067811865474617 ) ) ;
#104 = CARTESIAN_POINT ( 'NONE',  ( 0.000000000000000000, 6.349999999999999645, -2.750000000000000444 ) ) ;
#105 = CARTESIAN_POINT ( 'NONE',  ( 12.13679148667595342, 3.222529864623931317, -2.916937173625651525 ) ) ;
#106 = CARTESIAN_POINT ( 'NONE',  ( 0.000000000000000000, 6.349999999999999645, 2.999999999999998668 ) ) ;
#107 = PERSON_AND_ORGANIZATION ( #222, #50 ) ;
#108 = VERTEX_POINT ( 'NONE', #215 ) ;
#109 = DIRECTION ( 'NONE',  ( -0.000000000000000000, -0.000000000000000000, 1.000000000000000000 ) ) ;
#110 = DIRECTION ( 'NONE',  ( 1.000000000000000000, 0.000000000000000000, 0.000000000000000000 ) ) ;
#111 = ADVANCED_FACE ( 'NONE', ( #91 ), #145, .T. ) ;
#112 = APPLICATION_PROTOCOL_DEFINITION ( 'international standard', 'config_control_design', 1994, #269 ) ;
#113 = MECHANICAL_CONTEXT ( 'NONE', #179, 'mechanical' ) ;
#114 = CC_DESIGN_APPROVAL ( #75, ( #17 ) ) ;
#115 = DATE_AND_TIME ( #21, #225 ) ;
#116 = LINE ( 'NONE', #188, #220 ) ;
#117 = DATE_AND_TIME ( #170, #204 ) ;
#118 = AXIS2_PLACEMENT_3D ( 'NONE', #84, #195, #241 ) ;
#119 = AXIS2_PLACEMENT_3D ( 'NONE', #39, #60, #258 ) ;
#120 = APPROVAL_DATE_TIME ( #34, #12 ) ;
#121 = ORIENTED_EDGE ( 'NONE', *, *, #66, .F. ) ;
#122 = CARTESIAN_POINT ( 'NONE',  ( -12.57706715168255762, 4.312042901301574638, -1.029845238591325929 ) ) ;
#123 = CARTESIAN_POINT ( 'NONE',  ( 15.00000000000000000, 6.349999999999999645, 2.500000000000000000 ) ) ;
#124 = ORIENTED_EDGE ( 'NONE', *, *, #96, .T. ) ;
#125 = CARTESIAN_POINT ( 'NONE',  ( 15.00000000000000000, -6.349999999999999645, -2.999999999999998668 ) ) ;
#126 = DESIGN_CONTEXT ( 'detailed design', #269, 'design' ) ;
#127 = DIRECTION ( 'NONE',  ( 0.7071067811865475727, -0.000000000000000000, 0.7071067811865474617 ) ) ;
#128 = DIRECTION ( 'NONE',  ( 1.000000000000000000, 0.000000000000000000, 0.000000000000000000 ) ) ;
#129 = PRODUCT_RELATED_PRODUCT_CATEGORY ( 'detail', '', ( #198 ) ) ;
#130 = COORDINATED_UNIVERSAL_TIME_OFFSET ( 5, 0, .BEHIND. ) ;
#131 = ORIENTED_EDGE ( 'NONE', *, *, #93, .T. ) ;
#132 = CARTESIAN_POINT ( 'NONE',  ( -12.03823768940731220, 3.174573519457050352, -3.000000000000000000 ) ) ;
#133 = CARTESIAN_POINT ( 'NONE',  ( -12.03823768940731220, 3.174573519457050352, -3.000000000000000000 ) ) ;
#134 = CARTESIAN_POINT ( 'NONE',  ( 0.000000000000000000, 6.349999999999999645, -2.750000000000000444 ) ) ;
#135 = B_SPLINE_CURVE_WITH_KNOTS ( 'NONE', 3,
 ( #193, #136, #105, #156 ),
 .UNSPECIFIED., .F., .F.,
 ( 4, 4 ),
 ( 0.000000000000000000, 0.0004125637600518985483 ),
 .UNSPECIFIED. ) ;
#136 = CARTESIAN_POINT ( 'NONE',  ( 12.23503592802013351, 3.270645608924002357, -2.833598259853937762 ) ) ;
#137 = PERSON_AND_ORGANIZATION_ROLE ( 'design_supplier' ) ;
#138 = AXIS2_PLACEMENT_3D ( 'NONE', #106, #245, #151 ) ;
#139 = ADVANCED_FACE ( 'NONE', ( #82 ), #189, .F. ) ;
#140 = PERSON_AND_ORGANIZATION_ROLE ( 'design_owner' ) ;
#141 = AXIS2_PLACEMENT_3D ( 'NONE', #134, #155, #219 ) ;
#142 = ORIENTED_EDGE ( 'NONE', *, *, #214, .F. ) ;
#143 = VERTEX_POINT ( 'NONE', #37 ) ;
#144 = PERSON_AND_ORGANIZATION ( #222, #50 ) ;
#145 = CONICAL_SURFACE ( 'NONE', #102, 12.45000000000000284, 0.7853981633974482790 ) ;
#146 = CC_DESIGN_PERSON_AND_ORGANIZATION_ASSIGNMENT ( #94, #140, ( #198 ) ) ;
#147 = DIRECTION ( 'NONE',  ( 0.000000000000000000, -0.5000000000000008882, -0.8660254037844380415 ) ) ;
#148 = ORIENTED_EDGE ( 'NONE', *, *, #180, .T. ) ;
#149 = CARTESIAN_POINT ( 'NONE',  ( 0.000000000000000000, 6.349999999999999645, 2.999999999999998668 ) ) ;
#150 = ORIENTED_EDGE ( 'NONE', *, *, #180, .F. ) ;
#151 = DIRECTION ( 'NONE',  ( -1.000000000000000000, 0.000000000000000000, 0.000000000000000000 ) ) ;
#152 = CARTESIAN_POINT ( 'NONE',  ( 12.03823768940731043, 3.174573519457050352, -3.000000000000000000 ) ) ;
#153 = PERSON_AND_ORGANIZATION ( #222, #50 ) ;
#154 = ORIENTED_EDGE ( 'NONE', *, *, #157, .F. ) ;
#155 = DIRECTION ( 'NONE',  ( -0.000000000000000000, -0.000000000000000000, 1.000000000000000000 ) ) ;
#156 = CARTESIAN_POINT ( 'NONE',  ( 12.03823768940731043, 3.174573519457050352, -3.000000000000000000 ) ) ;
#157 = EDGE_CURVE ( 'NONE', #247, #108, #211, .T. ) ;
#158 = ADVANCED_FACE ( 'NONE', ( #30 ), #267, .T. ) ;
#159 = AXIS2_PLACEMENT_3D ( 'NONE', #104, #264, #128 ) ;
#160 = DATE_AND_TIME ( #233, #9 ) ;
#161 = VERTEX_POINT ( 'NONE', #49 ) ;
#162 = AXIS2_PLACEMENT_3D ( 'NONE', #123, #185, #65 ) ;
#163 = COORDINATED_UNIVERSAL_TIME_OFFSET ( 5, 0, .BEHIND. ) ;
#164 = ORIENTED_EDGE ( 'NONE', *, *, #66, .T. ) ;
#165 = CARTESIAN_POINT ( 'NONE',  ( 12.33298422929340887, 3.318911086754457784, -2.750000000000000444 ) ) ;
#166 = EDGE_CURVE ( 'NONE', #13, #257, #135, .T. ) ;
#167 = ORIENTED_EDGE ( 'NONE', *, *, #200, .F. ) ;
#168 = CARTESIAN_POINT ( 'NONE',  ( -12.33298422929340887, 3.318911086754457784, -2.750000000000000444 ) ) ;
#169 = CARTESIAN_POINT ( 'NONE',  ( 12.69999999999999929, 5.327313697134999693, 0.7286553632330519115 ) ) ;
#170 = CALENDAR_DATE ( 2021, 24, 2 ) ;
#171 = FACE_OUTER_BOUND ( 'NONE', #212, .T. ) ;
#172 =( NAMED_UNIT ( * ) PLANE_ANGLE_UNIT ( ) SI_UNIT ( $, .RADIAN. ) );
#173 = CARTESIAN_POINT ( 'NONE',  ( 12.45000000000000284, 6.349999999999999645, 3.000000000000000888 ) ) ;
#174 = CARTESIAN_POINT ( 'NONE',  ( -12.33298422929340887, 3.318911086754457784, -2.750000000000000444 ) ) ;
#175 = COORDINATED_UNIVERSAL_TIME_OFFSET ( 5, 0, .BEHIND. ) ;
#176 = VERTEX_POINT ( 'NONE', #133 ) ;
#177 = SECURITY_CLASSIFICATION_LEVEL ( 'unclassified' ) ;
#178 = ORIENTED_EDGE ( 'NONE', *, *, #19, .T. ) ;
#179 = APPLICATION_CONTEXT ( 'configuration controlled 3d designs of mechanical parts and assemblies' ) ;
#180 = EDGE_CURVE ( 'NONE', #176, #181, #248, .T. ) ;
#181 = VERTEX_POINT ( 'NONE', #70 ) ;
#182 =( GEOMETRIC_REPRESENTATION_CONTEXT ( 3 ) GLOBAL_UNCERTAINTY_ASSIGNED_CONTEXT ( ( #208 ) ) GLOBAL_UNIT_ASSIGNED_CONTEXT ( ( #20, #172, #201 ) ) REPRESENTATION_CONTEXT ( 'NONE', 'WORKASPACE' ) );
#183 = LOCAL_TIME ( 15, 33, 38.00000000000000000, #163 ) ;
#184 = EDGE_CURVE ( 'NONE', #257, #176, #81, .T. ) ;
#185 = DIRECTION ( 'NONE',  ( 0.000000000000000000, -1.000000000000000000, 0.000000000000000000 ) ) ;
#186 = FACE_OUTER_BOUND ( 'NONE', #207, .T. ) ;
#187 = ORIENTED_EDGE ( 'NONE', *, *, #184, .T. ) ;
#188 = CARTESIAN_POINT ( 'NONE',  ( 15.00000000000000000, 3.174573519457050352, -3.000000000000000000 ) ) ;
#189 = PLANE ( 'NONE',  #87 ) ;
#190 = CARTESIAN_POINT ( 'NONE',  ( 0.000000000000000000, 6.349999999999999645, 15.45000000000000107 ) ) ;
#191 = APPROVAL_PERSON_ORGANIZATION ( #153, #12, #249 ) ;
#192 = LINE ( 'NONE', #40, #55 ) ;
#193 = CARTESIAN_POINT ( 'NONE',  ( 12.33298422929340887, 3.318911086754457784, -2.750000000000000444 ) ) ;
#194 = CARTESIAN_POINT ( 'NONE',  ( 0.000000000000000000, 6.349999999999999645, -2.999999999999999556 ) ) ;
#195 = DIRECTION ( 'NONE',  ( 0.000000000000000000, -1.365985158626579181E-16, -1.000000000000000000 ) ) ;
#196 = VECTOR ( 'NONE', #15, 1000.000000000000000 ) ;
#197 = ORIENTED_EDGE ( 'NONE', *, *, #184, .F. ) ;
#198 = PRODUCT ( 'TTN227577-E0W', 'TTN227577-E0W', '', ( #113 ) ) ;
#199 = CARTESIAN_POINT ( 'NONE',  ( 12.69999999999999929, 6.349999999999994316, 2.499999999999991562 ) ) ;
#200 = EDGE_CURVE ( 'NONE', #13, #35, #89, .T. ) ;
#201 =( NAMED_UNIT ( * ) SI_UNIT ( $, .STERADIAN. ) SOLID_ANGLE_UNIT ( ) );
#202 = APPROVAL ( #8, 'UNSPECIFIED' ) ;
#203 = APPROVAL_ROLE ( '' ) ;
#204 = LOCAL_TIME ( 15, 33, 38.00000000000000000, #175 ) ;
#205 = PERSON_AND_ORGANIZATION_ROLE ( 'creator' ) ;
#206 = AXIS2_PLACEMENT_3D ( 'NONE', #125, #256, #101 ) ;
#207 = EDGE_LOOP ( 'NONE', ( #150, #197, #47, #142 ) ) ;
#208 = UNCERTAINTY_MEASURE_WITH_UNIT (LENGTH_MEASURE( 1.000000000000000082E-05 ), #20, 'distance_accuracy_value', 'NONE');
#209 = EDGE_CURVE ( 'NONE', #161, #95, #76, .T. ) ;
#210 = CIRCLE ( 'NONE', #159, 12.69999999999999929 ) ;
#211 = LINE ( 'NONE', #242, #263 ) ;
#212 = EDGE_LOOP ( 'NONE', ( #266, #230 ) ) ;
#213 = DIRECTION ( 'NONE',  ( 0.000000000000000000, -0.8660254037844381525, 0.5000000000000009992 ) ) ;
#214 = EDGE_CURVE ( 'NONE', #181, #13, #210, .T. ) ;
#215 = CARTESIAN_POINT ( 'NONE',  ( -12.45000000000000639, 6.349999999999999645, 2.999999999999999112 ) ) ;
#216 = SHAPE_DEFINITION_REPRESENTATION ( #16, #64 ) ;
#217 = AXIS2_PLACEMENT_3D ( 'NONE', #45, #221, #246 ) ;
#218 = CARTESIAN_POINT ( 'NONE',  ( 0.000000000000000000, 0.000000000000000000, 0.000000000000000000 ) ) ;
#219 = DIRECTION ( 'NONE',  ( 1.000000000000000000, 0.000000000000000000, 0.000000000000000000 ) ) ;
#220 = VECTOR ( 'NONE', #276, 1000.000000000000000 ) ;
#221 = DIRECTION ( 'NONE',  ( 0.000000000000000000, 0.000000000000000000, -1.000000000000000000 ) ) ;
#222 = PERSON ( 'UNSPECIFIED', 'UNSPECIFIED', 'UNSPECIFIED', ('UNSPECIFIED'), ('UNSPECIFIED'), ('UNSPECIFIED') ) ;
#223 = ADVANCED_FACE ( 'NONE', ( #186 ), #243, .T. ) ;
#224 = DATE_TIME_ROLE ( 'classification_date' ) ;
#225 = LOCAL_TIME ( 15, 33, 38.00000000000000000, #130 ) ;
#226 = PRODUCT_DEFINITION ( 'UNKNOWN', '', #28, #126 ) ;
#227 = PERSON_AND_ORGANIZATION ( #222, #50 ) ;
#228 = VECTOR ( 'NONE', #127, 1000.000000000000000 ) ;
#229 = APPROVAL_DATE_TIME ( #5, #75 ) ;
#230 = ORIENTED_EDGE ( 'NONE', *, *, #252, .T. ) ;
#231 = CC_DESIGN_PERSON_AND_ORGANIZATION_ASSIGNMENT ( #227, #137, ( #28 ) ) ;
#232 = EDGE_CURVE ( 'NONE', #35, #161, #56, .T. ) ;
#233 = CALENDAR_DATE ( 2021, 24, 2 ) ;
#234 = ORIENTED_EDGE ( 'NONE', *, *, #93, .F. ) ;
#235 = DIRECTION ( 'NONE',  ( -1.000000000000000000, 0.000000000000000000, 0.000000000000000000 ) ) ;
#236 = CARTESIAN_POINT ( 'NONE',  ( 15.00000000000000000, 6.349999999999999645, 2.500000000000000000 ) ) ;
#237 = LINE ( 'NONE', #265, #98 ) ;
#238 = EDGE_LOOP ( 'NONE', ( #154, #164, #32, #178, #69, #100 ) ) ;
#239 = PLANE ( 'NONE',  #162 ) ;
#240 = CC_DESIGN_APPROVAL ( #202, ( #28 ) ) ;
#241 = DIRECTION ( 'NONE',  ( 0.000000000000000000, -1.000000000000000000, 1.393352189539603668E-16 ) ) ;
#242 = CARTESIAN_POINT ( 'NONE',  ( 15.00000000000000000, 6.349999999999999645, 2.999999999999998668 ) ) ;
#243 = CONICAL_SURFACE ( 'NONE', #141, 12.69999999999999929, 0.7853981633974415066 ) ;
#244 = ORIENTED_EDGE ( 'NONE', *, *, #57, .F. ) ;
#245 = DIRECTION ( 'NONE',  ( -0.000000000000000000, -0.000000000000000000, 1.000000000000000000 ) ) ;
#246 = DIRECTION ( 'NONE',  ( -1.000000000000000000, 0.000000000000000000, 0.000000000000000000 ) ) ;
#247 = VERTEX_POINT ( 'NONE', #173 ) ;
#248 = B_SPLINE_CURVE_WITH_KNOTS ( 'NONE', 3,
 ( #132, #3, #68, #174 ),
 .UNSPECIFIED., .F., .F.,
 ( 4, 4 ),
 ( 1.987375409620156722E-18, 0.0004125637600518987109 ),
 .UNSPECIFIED. ) ;
#249 = APPROVAL_ROLE ( '' ) ;
#250 = EDGE_LOOP ( 'NONE', ( #244, #251, #121, #14 ) ) ;
#251 = ORIENTED_EDGE ( 'NONE', *, *, #209, .F. ) ;
#252 = EDGE_CURVE ( 'NONE', #108, #247, #85, .T. ) ;
#253 = PERSON_AND_ORGANIZATION ( #222, #50 ) ;
#254 = EDGE_LOOP ( 'NONE', ( #124, #78, #271, #86, #22, #38 ) ) ;
#255 = CARTESIAN_POINT ( 'NONE',  ( -12.69999999999999929, 5.327313697134997916, 0.7286553632330493580 ) ) ;
#256 = DIRECTION ( 'NONE',  ( -0.000000000000000000, 1.365985158626579181E-16, 1.000000000000000000 ) ) ;
#257 = VERTEX_POINT ( 'NONE', #152 ) ;
#258 = DIRECTION ( 'NONE',  ( -1.000000000000000000, 0.000000000000000000, -0.000000000000000000 ) ) ;
#259 = AXIS2_PLACEMENT_3D ( 'NONE', #218, #31, #110 ) ;
#260 = DIRECTION ( 'NONE',  ( 0.000000000000000000, 0.000000000000000000, -1.000000000000000000 ) ) ;
#261 = CC_DESIGN_SECURITY_CLASSIFICATION ( #17, ( #28 ) ) ;
#262 = LOCAL_TIME ( 15, 33, 38.00000000000000000, #46 ) ;
#263 = VECTOR ( 'NONE', #25, 1000.000000000000000 ) ;
#264 = DIRECTION ( 'NONE',  ( -0.000000000000000000, -0.000000000000000000, 1.000000000000000000 ) ) ;
#265 = CARTESIAN_POINT ( 'NONE',  ( -12.69999999999999929, 6.349999999999994316, -2.999999999999999556 ) ) ;
#266 = ORIENTED_EDGE ( 'NONE', *, *, #157, .T. ) ;
#267 = CYLINDRICAL_SURFACE ( 'NONE', #99, 12.69999999999999929 ) ;
#268 = CC_DESIGN_DATE_AND_TIME_ASSIGNMENT ( #160, #51, ( #226 ) ) ;
#269 = APPLICATION_CONTEXT ( 'configuration controlled 3d designs of mechanical parts and assemblies' ) ;
#270 = CALENDAR_DATE ( 2021, 24, 2 ) ;
#271 = ORIENTED_EDGE ( 'NONE', *, *, #200, .T. ) ;
#272 = CC_DESIGN_APPROVAL ( #12, ( #226 ) ) ;
#273 = CALENDAR_DATE ( 2021, 24, 2 ) ;
#274 = FACE_OUTER_BOUND ( 'NONE', #238, .T. ) ;
#275 = CARTESIAN_POINT ( 'NONE',  ( 12.69999999999999929, 6.349999999999994316, 2.499999999999991562 ) ) ;
#276 = DIRECTION ( 'NONE',  ( -1.000000000000000000, -0.000000000000000000, -0.000000000000000000 ) ) ;
#277 = EDGE_CURVE ( 'NONE', #143, #95, #237, .T. ) ;
#278 = CARTESIAN_POINT ( 'NONE',  ( 12.69999999999999929, 6.349999999999994316, -2.999999999999999556 ) ) ;
ENDSEC;
END-ISO-10303-21;
