ISO-10303-21;
HEADER;
FILE_DESCRIPTION (( 'STEP AP203' ),
    '1' );
FILE_NAME ('Web Model 17201_17201.step',
    '2021-04-14T20:41:24',
    ( '' ),
    ( '' ),
    'SwSTEP 2.0',
    'SolidWorks 2018',
    '' );
FILE_SCHEMA (( 'CONFIG_CONTROL_DESIGN' ));
ENDSEC;

DATA;
#1 = EDGE_CURVE ( 'NONE', #38, #23, #55, .T. ) ;
#2 = CC_DESIGN_PERSON_AND_ORGANIZATION_ASSIGNMENT ( #149, #43, ( #99 ) ) ;
#3 = FACE_OUTER_BOUND ( 'NONE', #72, .T. ) ;
#4 = DESIGN_CONTEXT ( 'detailed design', #56, 'design' ) ;
#5 = CC_DESIGN_DATE_AND_TIME_ASSIGNMENT ( #115, #133, ( #135 ) ) ;
#6 = DATE_AND_TIME ( #75, #101 ) ;
#7 = DIRECTION ( 'NONE',  ( -0.000000000000000000, -0.000000000000000000, -1.000000000000000000 ) ) ;
#8 = ORIENTED_EDGE ( 'NONE', *, *, #165, .F. ) ;
#9 = CARTESIAN_POINT ( 'NONE',  ( 25.00000000000000000, 3.061616997868383043E-15, 1.000000000000000000 ) ) ;
#10 = DIRECTION ( 'NONE',  ( 1.000000000000000000, 0.000000000000000000, -0.000000000000000000 ) ) ;
#11 = DATE_AND_TIME ( #17, #48 ) ;
#12 = DATE_TIME_ROLE ( 'creation_date' ) ;
#13 = AXIS2_PLACEMENT_3D ( 'NONE', #109, #71, #30 ) ;
#14 = EDGE_CURVE ( 'NONE', #64, #145, #102, .T. ) ;
#15 = EDGE_CURVE ( 'NONE', #23, #38, #83, .T. ) ;
#16 = SHAPE_DEFINITION_REPRESENTATION ( #111, #74 ) ;
#17 = CALENDAR_DATE ( 2021, 14, 4 ) ;
#18 = FACE_OUTER_BOUND ( 'NONE', #166, .T. ) ;
#19 = PERSON_AND_ORGANIZATION ( #159, #136 ) ;
#20 = CLOSED_SHELL ( 'NONE', ( #62, #32, #36, #168 ) ) ;
#21 = MANIFOLD_SOLID_BREP ( 'Boss-Extrude1', #20 ) ;
#22 = DIRECTION ( 'NONE',  ( 1.000000000000000000, 0.000000000000000000, 0.000000000000000000 ) ) ;
#23 = VERTEX_POINT ( 'NONE', #67 ) ;
#24 = DIRECTION ( 'NONE',  ( -0.000000000000000000, -0.000000000000000000, -1.000000000000000000 ) ) ;
#25 = CALENDAR_DATE ( 2021, 14, 4 ) ;
#26 = FACE_OUTER_BOUND ( 'NONE', #116, .T. ) ;
#27 = AXIS2_PLACEMENT_3D ( 'NONE', #140, #172, #128 ) ;
#28 = MECHANICAL_CONTEXT ( 'NONE', #119, 'mechanical' ) ;
#29 = APPROVAL_ROLE ( '' ) ;
#30 = DIRECTION ( 'NONE',  ( 1.000000000000000000, 0.000000000000000000, 0.000000000000000000 ) ) ;
#31 = LOCAL_TIME ( 16, 41, 24.00000000000000000, #126 ) ;
#32 = ADVANCED_FACE ( 'NONE', ( #113 ), #137, .T. ) ;
#33 = PERSON_AND_ORGANIZATION ( #159, #136 ) ;
#34 = ORIENTED_EDGE ( 'NONE', *, *, #1, .F. ) ;
#35 = APPROVAL ( #60, 'UNSPECIFIED' ) ;
#36 = ADVANCED_FACE ( 'NONE', ( #26 ), #41, .T. ) ;
#37 = EDGE_CURVE ( 'NONE', #145, #38, #59, .T. ) ;
#38 = VERTEX_POINT ( 'NONE', #130 ) ;
#39 = APPROVAL_PERSON_ORGANIZATION ( #85, #153, #29 ) ;
#40 = CARTESIAN_POINT ( 'NONE',  ( 0.000000000000000000, 0.000000000000000000, 1.000000000000000000 ) ) ;
#41 = PLANE ( 'NONE',  #146 ) ;
#42 = EDGE_LOOP ( 'NONE', ( #150, #154, #88, #93 ) ) ;
#43 = PERSON_AND_ORGANIZATION_ROLE ( 'design_owner' ) ;
#44 =( NAMED_UNIT ( * ) SI_UNIT ( $, .STERADIAN. ) SOLID_ANGLE_UNIT ( ) );
#45 = PERSON_AND_ORGANIZATION ( #159, #136 ) ;
#46 = AXIS2_PLACEMENT_3D ( 'NONE', #50, #79, #95 ) ;
#47 = DATE_AND_TIME ( #122, #31 ) ;
#48 = LOCAL_TIME ( 16, 41, 24.00000000000000000, #89 ) ;
#49 = LINE ( 'NONE', #68, #123 ) ;
#50 = CARTESIAN_POINT ( 'NONE',  ( 0.000000000000000000, 0.000000000000000000, 0.000000000000000000 ) ) ;
#51 = CC_DESIGN_APPROVAL ( #35, ( #76 ) ) ;
#52 = CARTESIAN_POINT ( 'NONE',  ( 0.000000000000000000, 0.000000000000000000, 1.000000000000000000 ) ) ;
#53 = LOCAL_TIME ( 16, 41, 24.00000000000000000, #161 ) ;
#54 = DIRECTION ( 'NONE',  ( 0.000000000000000000, 0.000000000000000000, 1.000000000000000000 ) ) ;
#55 = CIRCLE ( 'NONE', #27, 25.00000000000000000 ) ;
#56 = APPLICATION_CONTEXT ( 'configuration controlled 3d designs of mechanical parts and assemblies' ) ;
#57 = PERSON_AND_ORGANIZATION_ROLE ( 'creator' ) ;
#58 = AXIS2_PLACEMENT_3D ( 'NONE', #78, #141, #173 ) ;
#59 = LINE ( 'NONE', #131, #61 ) ;
#60 = APPROVAL_STATUS ( 'not_yet_approved' ) ;
#61 = VECTOR ( 'NONE', #69, 1000.000000000000000 ) ;
#62 = ADVANCED_FACE ( 'NONE', ( #3 ), #91, .T. ) ;
#63 = CC_DESIGN_PERSON_AND_ORGANIZATION_ASSIGNMENT ( #169, #57, ( #106 ) ) ;
#64 = VERTEX_POINT ( 'NONE', #117 ) ;
#65 = AXIS2_PLACEMENT_3D ( 'NONE', #40, #7, #108 ) ;
#66 = LOCAL_TIME ( 16, 41, 24.00000000000000000, #162 ) ;
#67 = CARTESIAN_POINT ( 'NONE',  ( -25.00000000000000000, 0.000000000000000000, 0.000000000000000000 ) ) ;
#68 = CARTESIAN_POINT ( 'NONE',  ( -25.00000000000000000, 0.000000000000000000, 1.000000000000000000 ) ) ;
#69 = DIRECTION ( 'NONE',  ( -0.000000000000000000, -0.000000000000000000, -1.000000000000000000 ) ) ;
#70 = PERSON_AND_ORGANIZATION_ROLE ( 'creator' ) ;
#71 = DIRECTION ( 'NONE',  ( 0.000000000000000000, 0.000000000000000000, 1.000000000000000000 ) ) ;
#72 = EDGE_LOOP ( 'NONE', ( #142, #86, #147, #8 ) ) ;
#73 = APPROVAL_DATE_TIME ( #100, #35 ) ;
#74 = ADVANCED_BREP_SHAPE_REPRESENTATION ( 'Web Model 17201_17201', ( #21, #13 ), #170 ) ;
#75 = CALENDAR_DATE ( 2021, 14, 4 ) ;
#76 = PRODUCT_DEFINITION ( 'UNKNOWN', '', #106, #4 ) ;
#77 = PRODUCT_RELATED_PRODUCT_CATEGORY ( 'detail', '', ( #99 ) ) ;
#78 = CARTESIAN_POINT ( 'NONE',  ( 0.000000000000000000, 0.000000000000000000, 1.000000000000000000 ) ) ;
#79 = DIRECTION ( 'NONE',  ( 0.000000000000000000, 0.000000000000000000, 1.000000000000000000 ) ) ;
#80 = CC_DESIGN_DATE_AND_TIME_ASSIGNMENT ( #6, #12, ( #76 ) ) ;
#81 = COORDINATED_UNIVERSAL_TIME_OFFSET ( 5, 0, .BEHIND. ) ;
#82 = APPROVAL_ROLE ( '' ) ;
#83 = CIRCLE ( 'NONE', #46, 25.00000000000000000 ) ;
#84 = APPROVAL_ROLE ( '' ) ;
#85 = PERSON_AND_ORGANIZATION ( #159, #136 ) ;
#86 = ORIENTED_EDGE ( 'NONE', *, *, #37, .T. ) ;
#87 = CC_DESIGN_PERSON_AND_ORGANIZATION_ASSIGNMENT ( #19, #98, ( #135 ) ) ;
#88 = ORIENTED_EDGE ( 'NONE', *, *, #165, .T. ) ;
#89 = COORDINATED_UNIVERSAL_TIME_OFFSET ( 5, 0, .BEHIND. ) ;
#90 = APPROVAL_DATE_TIME ( #11, #120 ) ;
#91 = CYLINDRICAL_SURFACE ( 'NONE', #163, 25.00000000000000000 ) ;
#92 = APPROVAL_DATE_TIME ( #47, #153 ) ;
#93 = ORIENTED_EDGE ( 'NONE', *, *, #15, .T. ) ;
#94 =( NAMED_UNIT ( * ) PLANE_ANGLE_UNIT ( ) SI_UNIT ( $, .RADIAN. ) );
#95 = DIRECTION ( 'NONE',  ( 1.000000000000000000, 0.000000000000000000, 0.000000000000000000 ) ) ;
#96 = CARTESIAN_POINT ( 'NONE',  ( 0.000000000000000000, 0.000000000000000000, 0.000000000000000000 ) ) ;
#97 = ORIENTED_EDGE ( 'NONE', *, *, #15, .F. ) ;
#98 = PERSON_AND_ORGANIZATION_ROLE ( 'classification_officer' ) ;
#99 = PRODUCT ( 'Web Model 17201_17201', 'Web Model 17201_17201', '', ( #28 ) ) ;
#100 = DATE_AND_TIME ( #127, #66 ) ;
#101 = LOCAL_TIME ( 16, 41, 24.00000000000000000, #81 ) ;
#102 = CIRCLE ( 'NONE', #58, 25.00000000000000000 ) ;
#103 = EDGE_CURVE ( 'NONE', #145, #64, #151, .T. ) ;
#104 = PERSON_AND_ORGANIZATION ( #159, #136 ) ;
#105 = PERSON_AND_ORGANIZATION ( #159, #136 ) ;
#106 = PRODUCT_DEFINITION_FORMATION_WITH_SPECIFIED_SOURCE ( 'ANY', '', #99, .NOT_KNOWN. ) ;
#107 = AXIS2_PLACEMENT_3D ( 'NONE', #96, #54, #10 ) ;
#108 = DIRECTION ( 'NONE',  ( -1.000000000000000000, 0.000000000000000000, 0.000000000000000000 ) ) ;
#109 = CARTESIAN_POINT ( 'NONE',  ( 0.000000000000000000, 0.000000000000000000, 0.000000000000000000 ) ) ;
#110 = PERSON_AND_ORGANIZATION_ROLE ( 'design_supplier' ) ;
#111 = PRODUCT_DEFINITION_SHAPE ( 'NONE', 'NONE',  #76 ) ;
#112 = CC_DESIGN_APPROVAL ( #153, ( #135 ) ) ;
#113 = FACE_OUTER_BOUND ( 'NONE', #42, .T. ) ;
#114 = DIRECTION ( 'NONE',  ( -1.000000000000000000, 0.000000000000000000, 0.000000000000000000 ) ) ;
#115 = DATE_AND_TIME ( #25, #53 ) ;
#116 = EDGE_LOOP ( 'NONE', ( #134, #124 ) ) ;
#117 = CARTESIAN_POINT ( 'NONE',  ( -25.00000000000000000, 0.000000000000000000, 1.000000000000000000 ) ) ;
#118 = APPROVAL_STATUS ( 'not_yet_approved' ) ;
#119 = APPLICATION_CONTEXT ( 'configuration controlled 3d designs of mechanical parts and assemblies' ) ;
#120 = APPROVAL ( #164, 'UNSPECIFIED' ) ;
#121 = CC_DESIGN_PERSON_AND_ORGANIZATION_ASSIGNMENT ( #33, #70, ( #76 ) ) ;
#122 = CALENDAR_DATE ( 2021, 14, 4 ) ;
#123 = VECTOR ( 'NONE', #175, 1000.000000000000000 ) ;
#124 = ORIENTED_EDGE ( 'NONE', *, *, #103, .T. ) ;
#125 = CC_DESIGN_PERSON_AND_ORGANIZATION_ASSIGNMENT ( #104, #110, ( #106 ) ) ;
#126 = COORDINATED_UNIVERSAL_TIME_OFFSET ( 5, 0, .BEHIND. ) ;
#127 = CALENDAR_DATE ( 2021, 14, 4 ) ;
#128 = DIRECTION ( 'NONE',  ( 1.000000000000000000, 0.000000000000000000, 0.000000000000000000 ) ) ;
#129 = CC_DESIGN_APPROVAL ( #120, ( #106 ) ) ;
#130 = CARTESIAN_POINT ( 'NONE',  ( 25.00000000000000000, 3.061616997868383043E-15, 0.000000000000000000 ) ) ;
#131 = CARTESIAN_POINT ( 'NONE',  ( 25.00000000000000000, 3.061616997868383043E-15, 1.000000000000000000 ) ) ;
#132 = CARTESIAN_POINT ( 'NONE',  ( 0.000000000000000000, 0.000000000000000000, 1.000000000000000000 ) ) ;
#133 = DATE_TIME_ROLE ( 'classification_date' ) ;
#134 = ORIENTED_EDGE ( 'NONE', *, *, #14, .T. ) ;
#135 = SECURITY_CLASSIFICATION ( '', '', #160 ) ;
#136 = ORGANIZATION ( 'UNSPECIFIED', 'UNSPECIFIED', '' ) ;
#137 = CYLINDRICAL_SURFACE ( 'NONE', #65, 25.00000000000000000 ) ;
#138 = APPROVAL_PERSON_ORGANIZATION ( #45, #120, #84 ) ;
#139 = PLANE ( 'NONE',  #107 ) ;
#140 = CARTESIAN_POINT ( 'NONE',  ( 0.000000000000000000, 0.000000000000000000, 0.000000000000000000 ) ) ;
#141 = DIRECTION ( 'NONE',  ( 0.000000000000000000, 0.000000000000000000, 1.000000000000000000 ) ) ;
#142 = ORIENTED_EDGE ( 'NONE', *, *, #103, .F. ) ;
#143 = APPLICATION_PROTOCOL_DEFINITION ( 'international standard', 'config_control_design', 1994, #56 ) ;
#144 = APPLICATION_PROTOCOL_DEFINITION ( 'international standard', 'config_control_design', 1994, #119 ) ;
#145 = VERTEX_POINT ( 'NONE', #9 ) ;
#146 = AXIS2_PLACEMENT_3D ( 'NONE', #156, #152, #155 ) ;
#147 = ORIENTED_EDGE ( 'NONE', *, *, #1, .T. ) ;
#148 = CC_DESIGN_SECURITY_CLASSIFICATION ( #135, ( #106 ) ) ;
#149 = PERSON_AND_ORGANIZATION ( #159, #136 ) ;
#150 = ORIENTED_EDGE ( 'NONE', *, *, #37, .F. ) ;
#151 = CIRCLE ( 'NONE', #157, 25.00000000000000000 ) ;
#152 = DIRECTION ( 'NONE',  ( 0.000000000000000000, 0.000000000000000000, 1.000000000000000000 ) ) ;
#153 = APPROVAL ( #118, 'UNSPECIFIED' ) ;
#154 = ORIENTED_EDGE ( 'NONE', *, *, #14, .F. ) ;
#155 = DIRECTION ( 'NONE',  ( 1.000000000000000000, 0.000000000000000000, -0.000000000000000000 ) ) ;
#156 = CARTESIAN_POINT ( 'NONE',  ( 0.000000000000000000, 0.000000000000000000, 1.000000000000000000 ) ) ;
#157 = AXIS2_PLACEMENT_3D ( 'NONE', #132, #174, #22 ) ;
#158 =( LENGTH_UNIT ( ) NAMED_UNIT ( * ) SI_UNIT ( .MILLI., .METRE. ) );
#159 = PERSON ( 'UNSPECIFIED', 'UNSPECIFIED', 'UNSPECIFIED', ('UNSPECIFIED'), ('UNSPECIFIED'), ('UNSPECIFIED') ) ;
#160 = SECURITY_CLASSIFICATION_LEVEL ( 'unclassified' ) ;
#161 = COORDINATED_UNIVERSAL_TIME_OFFSET ( 5, 0, .BEHIND. ) ;
#162 = COORDINATED_UNIVERSAL_TIME_OFFSET ( 5, 0, .BEHIND. ) ;
#163 = AXIS2_PLACEMENT_3D ( 'NONE', #52, #24, #114 ) ;
#164 = APPROVAL_STATUS ( 'not_yet_approved' ) ;
#165 = EDGE_CURVE ( 'NONE', #64, #23, #49, .T. ) ;
#166 = EDGE_LOOP ( 'NONE', ( #97, #34 ) ) ;
#167 = UNCERTAINTY_MEASURE_WITH_UNIT (LENGTH_MEASURE( 1.000000000000000082E-05 ), #158, 'distance_accuracy_value', 'NONE');
#168 = ADVANCED_FACE ( 'NONE', ( #18 ), #139, .F. ) ;
#169 = PERSON_AND_ORGANIZATION ( #159, #136 ) ;
#170 =( GEOMETRIC_REPRESENTATION_CONTEXT ( 3 ) GLOBAL_UNCERTAINTY_ASSIGNED_CONTEXT ( ( #167 ) ) GLOBAL_UNIT_ASSIGNED_CONTEXT ( ( #158, #94, #44 ) ) REPRESENTATION_CONTEXT ( 'NONE', 'WORKASPACE' ) );
#171 = APPROVAL_PERSON_ORGANIZATION ( #105, #35, #82 ) ;
#172 = DIRECTION ( 'NONE',  ( 0.000000000000000000, 0.000000000000000000, 1.000000000000000000 ) ) ;
#173 = DIRECTION ( 'NONE',  ( 1.000000000000000000, 0.000000000000000000, 0.000000000000000000 ) ) ;
#174 = DIRECTION ( 'NONE',  ( 0.000000000000000000, 0.000000000000000000, 1.000000000000000000 ) ) ;
#175 = DIRECTION ( 'NONE',  ( -0.000000000000000000, -0.000000000000000000, -1.000000000000000000 ) ) ;
ENDSEC;
END-ISO-10303-21;
