ISO-10303-21;
HEADER;
FILE_DESCRIPTION (( 'STEP AP203' ),
    '1' );
FILE_NAME ('Web Model 14684_14690.step',
    '2020-04-13T13:39:25',
    ( '' ),
    ( '' ),
    'SwSTEP 2.0',
    'SolidWorks 2018',
    '' );
FILE_SCHEMA (( 'CONFIG_CONTROL_DESIGN' ));
ENDSEC;

DATA;
#1 = PERSON_AND_ORGANIZATION_ROLE ( 'creator' ) ;
#2 = DIRECTION ( 'NONE',  ( -1.000000000000000000, -0.0000000000000000000, -0.0000000000000000000 ) ) ;
#3 = APPLICATION_PROTOCOL_DEFINITION ( 'international standard', 'config_control_design', 1994, #153 ) ;
#4 =( NAMED_UNIT ( * ) SI_UNIT ( $, .STERADIAN. ) SOLID_ANGLE_UNIT ( ) );
#5 = COORDINATED_UNIVERSAL_TIME_OFFSET ( 5, 0, .BEHIND. ) ;
#6 = ORIENTED_EDGE ( 'NONE', *, *, #81, .F. ) ;
#7 = ADVANCED_BREP_SHAPE_REPRESENTATION ( 'Web Model 14684_14690', ( #169, #110 ), #68 ) ;
#8 = AXIS2_PLACEMENT_3D ( 'NONE', #10, #51, #64 ) ;
#9 = ADVANCED_FACE ( 'NONE', ( #108 ), #66, .T. ) ;
#10 = CARTESIAN_POINT ( 'NONE',  ( 1.500000000000000000, 0.0000000000000000000, 0.0000000000000000000 ) ) ;
#11 = DIRECTION ( 'NONE',  ( 0.0000000000000000000, 0.0000000000000000000, 1.000000000000000000 ) ) ;
#12 = CALENDAR_DATE ( 2020, 13, 4 ) ;
#13 = DIRECTION ( 'NONE',  ( 1.000000000000000000, 0.0000000000000000000, 0.0000000000000000000 ) ) ;
#14 = APPLICATION_CONTEXT ( 'configuration controlled 3d designs of mechanical parts and assemblies' ) ;
#15 = PRODUCT_DEFINITION ( 'UNKNOWN', '', #135, #74 ) ;
#16 = SECURITY_CLASSIFICATION_LEVEL ( 'unclassified' ) ;
#17 = COORDINATED_UNIVERSAL_TIME_OFFSET ( 5, 0, .BEHIND. ) ;
#18 = EDGE_CURVE ( 'NONE', #145, #155, #52, .T. ) ;
#19 = CALENDAR_DATE ( 2020, 13, 4 ) ;
#20 = ORIENTED_EDGE ( 'NONE', *, *, #69, .T. ) ;
#21 = APPROVAL_DATE_TIME ( #57, #77 ) ;
#22 = CARTESIAN_POINT ( 'NONE',  ( 1.500000000000000000, 0.0000000000000000000, 12.69999999999999929 ) ) ;
#23 = DIRECTION ( 'NONE',  ( -1.000000000000000000, -0.0000000000000000000, -0.0000000000000000000 ) ) ;
#24 = DIRECTION ( 'NONE',  ( 0.0000000000000000000, 0.0000000000000000000, -1.000000000000000000 ) ) ;
#25 = APPROVAL_PERSON_ORGANIZATION ( #148, #88, #103 ) ;
#26 = AXIS2_PLACEMENT_3D ( 'NONE', #54, #163, #165 ) ;
#27 = DIRECTION ( 'NONE',  ( 0.0000000000000000000, 0.0000000000000000000, 1.000000000000000000 ) ) ;
#28 = PERSON_AND_ORGANIZATION ( #150, #33 ) ;
#29 = CLOSED_SHELL ( 'NONE', ( #84, #39, #9, #70 ) ) ;
#30 = PERSON_AND_ORGANIZATION_ROLE ( 'classification_officer' ) ;
#31 = CIRCLE ( 'NONE', #158, 12.69999999999999929 ) ;
#32 = FACE_OUTER_BOUND ( 'NONE', #143, .T. ) ;
#33 = ORGANIZATION ( 'UNSPECIFIED', 'UNSPECIFIED', '' ) ;
#34 = CC_DESIGN_PERSON_AND_ORGANIZATION_ASSIGNMENT ( #175, #137, ( #149 ) ) ;
#35 = APPROVAL_PERSON_ORGANIZATION ( #94, #58, #75 ) ;
#36 = DIRECTION ( 'NONE',  ( 0.0000000000000000000, 0.0000000000000000000, 1.000000000000000000 ) ) ;
#37 = ORIENTED_EDGE ( 'NONE', *, *, #104, .T. ) ;
#38 = AXIS2_PLACEMENT_3D ( 'NONE', #83, #173, #97 ) ;
#39 = ADVANCED_FACE ( 'NONE', ( #123 ), #86, .T. ) ;
#40 = CC_DESIGN_PERSON_AND_ORGANIZATION_ASSIGNMENT ( #102, #139, ( #135 ) ) ;
#41 = CARTESIAN_POINT ( 'NONE',  ( 0.0000000000000000000, 0.0000000000000000000, 0.0000000000000000000 ) ) ;
#42 = PERSON_AND_ORGANIZATION ( #150, #33 ) ;
#43 = DATE_TIME_ROLE ( 'classification_date' ) ;
#44 = MECHANICAL_CONTEXT ( 'NONE', #14, 'mechanical' ) ;
#45 = APPROVAL_DATE_TIME ( #62, #88 ) ;
#46 = ORIENTED_EDGE ( 'NONE', *, *, #76, .F. ) ;
#47 = AXIS2_PLACEMENT_3D ( 'NONE', #101, #13, #112 ) ;
#48 = VECTOR ( 'NONE', #2, 1000.000000000000000 ) ;
#49 = EDGE_CURVE ( 'NONE', #155, #145, #31, .T. ) ;
#50 = CALENDAR_DATE ( 2020, 13, 4 ) ;
#51 = DIRECTION ( 'NONE',  ( 1.000000000000000000, 0.0000000000000000000, 0.0000000000000000000 ) ) ;
#52 = CIRCLE ( 'NONE', #118, 12.69999999999999929 ) ;
#53 = CARTESIAN_POINT ( 'NONE',  ( 1.500000000000000000, 1.555301434917138433E-15, -12.69999999999999929 ) ) ;
#54 = CARTESIAN_POINT ( 'NONE',  ( 1.500000000000000000, 0.0000000000000000000, 0.0000000000000000000 ) ) ;
#55 = CARTESIAN_POINT ( 'NONE',  ( -1.500000000000000000, 1.555301434917138433E-15, -12.69999999999999929 ) ) ;
#56 = CARTESIAN_POINT ( 'NONE',  ( 1.500000000000000000, 0.0000000000000000000, 12.69999999999999929 ) ) ;
#57 = DATE_AND_TIME ( #85, #154 ) ;
#58 = APPROVAL ( #136, 'UNSPECIFIED' ) ;
#59 = ORIENTED_EDGE ( 'NONE', *, *, #76, .T. ) ;
#60 = PERSON_AND_ORGANIZATION ( #150, #33 ) ;
#61 = CC_DESIGN_APPROVAL ( #88, ( #15 ) ) ;
#62 = DATE_AND_TIME ( #50, #140 ) ;
#63 = EDGE_LOOP ( 'NONE', ( #46, #37, #141, #79 ) ) ;
#64 = DIRECTION ( 'NONE',  ( 0.0000000000000000000, 0.0000000000000000000, -1.000000000000000000 ) ) ;
#65 = CC_DESIGN_APPROVAL ( #58, ( #126 ) ) ;
#66 = PLANE ( 'NONE',  #26 ) ;
#67 = DIRECTION ( 'NONE',  ( 1.000000000000000000, 0.0000000000000000000, 0.0000000000000000000 ) ) ;
#68 =( GEOMETRIC_REPRESENTATION_CONTEXT ( 3 ) GLOBAL_UNCERTAINTY_ASSIGNED_CONTEXT ( ( #128 ) ) GLOBAL_UNIT_ASSIGNED_CONTEXT ( ( #125, #134, #4 ) ) REPRESENTATION_CONTEXT ( 'NONE', 'WORKASPACE' ) );
#69 = EDGE_CURVE ( 'NONE', #130, #155, #133, .T. ) ;
#70 = ADVANCED_FACE ( 'NONE', ( #32 ), #146, .F. ) ;
#71 = APPROVAL_DATE_TIME ( #171, #58 ) ;
#72 = LINE ( 'NONE', #53, #161 ) ;
#73 = CARTESIAN_POINT ( 'NONE',  ( -1.500000000000000000, 0.0000000000000000000, 12.69999999999999929 ) ) ;
#74 = DESIGN_CONTEXT ( 'detailed design', #153, 'design' ) ;
#75 = APPROVAL_ROLE ( '' ) ;
#76 = EDGE_CURVE ( 'NONE', #96, #130, #172, .T. ) ;
#77 = APPROVAL ( #152, 'UNSPECIFIED' ) ;
#78 = COORDINATED_UNIVERSAL_TIME_OFFSET ( 5, 0, .BEHIND. ) ;
#79 = ORIENTED_EDGE ( 'NONE', *, *, #69, .F. ) ;
#80 = ORIENTED_EDGE ( 'NONE', *, *, #18, .F. ) ;
#81 = EDGE_CURVE ( 'NONE', #130, #96, #170, .T. ) ;
#82 = PRODUCT_DEFINITION_SHAPE ( 'NONE', 'NONE',  #15 ) ;
#83 = CARTESIAN_POINT ( 'NONE',  ( 1.500000000000000000, 0.0000000000000000000, 0.0000000000000000000 ) ) ;
#84 = ADVANCED_FACE ( 'NONE', ( #168 ), #117, .T. ) ;
#85 = CALENDAR_DATE ( 2020, 13, 4 ) ;
#86 = CYLINDRICAL_SURFACE ( 'NONE', #121, 12.69999999999999929 ) ;
#87 = CARTESIAN_POINT ( 'NONE',  ( 1.500000000000000000, 0.0000000000000000000, 0.0000000000000000000 ) ) ;
#88 = APPROVAL ( #116, 'UNSPECIFIED' ) ;
#89 = DATE_TIME_ROLE ( 'creation_date' ) ;
#90 = DIRECTION ( 'NONE',  ( 1.000000000000000000, 0.0000000000000000000, 0.0000000000000000000 ) ) ;
#91 = PERSON_AND_ORGANIZATION_ROLE ( 'creator' ) ;
#92 = CC_DESIGN_SECURITY_CLASSIFICATION ( #126, ( #135 ) ) ;
#93 = SHAPE_DEFINITION_REPRESENTATION ( #82, #7 ) ;
#94 = PERSON_AND_ORGANIZATION ( #150, #33 ) ;
#95 = CC_DESIGN_APPROVAL ( #77, ( #135 ) ) ;
#96 = VERTEX_POINT ( 'NONE', #98 ) ;
#97 = DIRECTION ( 'NONE',  ( 0.0000000000000000000, 0.0000000000000000000, -1.000000000000000000 ) ) ;
#98 = CARTESIAN_POINT ( 'NONE',  ( 1.500000000000000000, 1.555301434917138433E-15, -12.69999999999999929 ) ) ;
#99 = CC_DESIGN_PERSON_AND_ORGANIZATION_ASSIGNMENT ( #28, #1, ( #15 ) ) ;
#100 = ORIENTED_EDGE ( 'NONE', *, *, #49, .F. ) ;
#101 = CARTESIAN_POINT ( 'NONE',  ( -1.500000000000000000, 0.0000000000000000000, 0.0000000000000000000 ) ) ;
#102 = PERSON_AND_ORGANIZATION ( #150, #33 ) ;
#103 = APPROVAL_ROLE ( '' ) ;
#104 = EDGE_CURVE ( 'NONE', #96, #145, #72, .T. ) ;
#105 = CC_DESIGN_PERSON_AND_ORGANIZATION_ASSIGNMENT ( #60, #91, ( #135 ) ) ;
#106 = ORIENTED_EDGE ( 'NONE', *, *, #104, .F. ) ;
#107 = PERSON_AND_ORGANIZATION ( #150, #33 ) ;
#108 = FACE_OUTER_BOUND ( 'NONE', #114, .T. ) ;
#109 = DIRECTION ( 'NONE',  ( 1.000000000000000000, 0.0000000000000000000, 0.0000000000000000000 ) ) ;
#110 = AXIS2_PLACEMENT_3D ( 'NONE', #41, #27, #90 ) ;
#111 = DIRECTION ( 'NONE',  ( -1.000000000000000000, -0.0000000000000000000, -0.0000000000000000000 ) ) ;
#112 = DIRECTION ( 'NONE',  ( 0.0000000000000000000, 0.0000000000000000000, -1.000000000000000000 ) ) ;
#113 = DATE_AND_TIME ( #12, #157 ) ;
#114 = EDGE_LOOP ( 'NONE', ( #167, #59 ) ) ;
#115 = APPROVAL_ROLE ( '' ) ;
#116 = APPROVAL_STATUS ( 'not_yet_approved' ) ;
#117 = CYLINDRICAL_SURFACE ( 'NONE', #142, 12.69999999999999929 ) ;
#118 = AXIS2_PLACEMENT_3D ( 'NONE', #151, #109, #24 ) ;
#119 = COORDINATED_UNIVERSAL_TIME_OFFSET ( 5, 0, .BEHIND. ) ;
#120 = CALENDAR_DATE ( 2020, 13, 4 ) ;
#121 = AXIS2_PLACEMENT_3D ( 'NONE', #174, #23, #11 ) ;
#122 = APPROVAL_PERSON_ORGANIZATION ( #42, #77, #115 ) ;
#123 = FACE_OUTER_BOUND ( 'NONE', #131, .T. ) ;
#124 = CARTESIAN_POINT ( 'NONE',  ( -1.500000000000000000, 0.0000000000000000000, 0.0000000000000000000 ) ) ;
#125 =( LENGTH_UNIT ( ) NAMED_UNIT ( * ) SI_UNIT ( .MILLI., .METRE. ) );
#126 = SECURITY_CLASSIFICATION ( '', '', #16 ) ;
#127 = APPLICATION_PROTOCOL_DEFINITION ( 'international standard', 'config_control_design', 1994, #14 ) ;
#128 = UNCERTAINTY_MEASURE_WITH_UNIT (LENGTH_MEASURE( 1.000000000000000082E-05 ), #125, 'distance_accuracy_value', 'NONE');
#129 = PRODUCT_RELATED_PRODUCT_CATEGORY ( 'detail', '', ( #149 ) ) ;
#130 = VERTEX_POINT ( 'NONE', #56 ) ;
#131 = EDGE_LOOP ( 'NONE', ( #106, #6, #20, #166 ) ) ;
#132 = CC_DESIGN_DATE_AND_TIME_ASSIGNMENT ( #147, #89, ( #15 ) ) ;
#133 = LINE ( 'NONE', #22, #48 ) ;
#134 =( NAMED_UNIT ( * ) PLANE_ANGLE_UNIT ( ) SI_UNIT ( $, .RADIAN. ) );
#135 = PRODUCT_DEFINITION_FORMATION_WITH_SPECIFIED_SOURCE ( 'ANY', '', #149, .NOT_KNOWN. ) ;
#136 = APPROVAL_STATUS ( 'not_yet_approved' ) ;
#137 = PERSON_AND_ORGANIZATION_ROLE ( 'design_owner' ) ;
#138 = LOCAL_TIME ( 9, 39, 25.00000000000000000, #78 ) ;
#139 = PERSON_AND_ORGANIZATION_ROLE ( 'design_supplier' ) ;
#140 = LOCAL_TIME ( 9, 39, 25.00000000000000000, #17 ) ;
#141 = ORIENTED_EDGE ( 'NONE', *, *, #18, .T. ) ;
#142 = AXIS2_PLACEMENT_3D ( 'NONE', #87, #162, #36 ) ;
#143 = EDGE_LOOP ( 'NONE', ( #100, #80 ) ) ;
#144 = COORDINATED_UNIVERSAL_TIME_OFFSET ( 5, 0, .BEHIND. ) ;
#145 = VERTEX_POINT ( 'NONE', #55 ) ;
#146 = PLANE ( 'NONE',  #47 ) ;
#147 = DATE_AND_TIME ( #120, #138 ) ;
#148 = PERSON_AND_ORGANIZATION ( #150, #33 ) ;
#149 = PRODUCT ( 'Web Model 14684_14690', 'Web Model 14684_14690', '', ( #44 ) ) ;
#150 = PERSON ( 'UNSPECIFIED', 'UNSPECIFIED', 'UNSPECIFIED', ('UNSPECIFIED'), ('UNSPECIFIED'), ('UNSPECIFIED') ) ;
#151 = CARTESIAN_POINT ( 'NONE',  ( -1.500000000000000000, 0.0000000000000000000, 0.0000000000000000000 ) ) ;
#152 = APPROVAL_STATUS ( 'not_yet_approved' ) ;
#153 = APPLICATION_CONTEXT ( 'configuration controlled 3d designs of mechanical parts and assemblies' ) ;
#154 = LOCAL_TIME ( 9, 39, 25.00000000000000000, #144 ) ;
#155 = VERTEX_POINT ( 'NONE', #73 ) ;
#156 = LOCAL_TIME ( 9, 39, 25.00000000000000000, #5 ) ;
#157 = LOCAL_TIME ( 9, 39, 25.00000000000000000, #119 ) ;
#158 = AXIS2_PLACEMENT_3D ( 'NONE', #124, #67, #164 ) ;
#159 = CC_DESIGN_PERSON_AND_ORGANIZATION_ASSIGNMENT ( #107, #30, ( #126 ) ) ;
#160 = CC_DESIGN_DATE_AND_TIME_ASSIGNMENT ( #113, #43, ( #126 ) ) ;
#161 = VECTOR ( 'NONE', #111, 1000.000000000000000 ) ;
#162 = DIRECTION ( 'NONE',  ( -1.000000000000000000, -0.0000000000000000000, -0.0000000000000000000 ) ) ;
#163 = DIRECTION ( 'NONE',  ( 1.000000000000000000, 0.0000000000000000000, 0.0000000000000000000 ) ) ;
#164 = DIRECTION ( 'NONE',  ( 0.0000000000000000000, 0.0000000000000000000, -1.000000000000000000 ) ) ;
#165 = DIRECTION ( 'NONE',  ( 0.0000000000000000000, 0.0000000000000000000, -1.000000000000000000 ) ) ;
#166 = ORIENTED_EDGE ( 'NONE', *, *, #49, .T. ) ;
#167 = ORIENTED_EDGE ( 'NONE', *, *, #81, .T. ) ;
#168 = FACE_OUTER_BOUND ( 'NONE', #63, .T. ) ;
#169 = MANIFOLD_SOLID_BREP ( 'Boss-Extrude1', #29 ) ;
#170 = CIRCLE ( 'NONE', #8, 12.69999999999999929 ) ;
#171 = DATE_AND_TIME ( #19, #156 ) ;
#172 = CIRCLE ( 'NONE', #38, 12.69999999999999929 ) ;
#173 = DIRECTION ( 'NONE',  ( 1.000000000000000000, 0.0000000000000000000, 0.0000000000000000000 ) ) ;
#174 = CARTESIAN_POINT ( 'NONE',  ( 1.500000000000000000, 0.0000000000000000000, 0.0000000000000000000 ) ) ;
#175 = PERSON_AND_ORGANIZATION ( #150, #33 ) ;
ENDSEC;
END-ISO-10303-21;
