ISO-10303-21;
HEADER;
FILE_DESCRIPTION (( 'STEP AP203' ),
    '1' );
FILE_NAME ('Web Model 39236_39236.step',
    '2018-07-25T17:12:05',
    ( '' ),
    ( '' ),
    'SwSTEP 2.0',
    'SolidWorks 2016',
    '' );
FILE_SCHEMA (( 'CONFIG_CONTROL_DESIGN' ));
ENDSEC;

DATA;
#1 = PERSON_AND_ORGANIZATION ( #63, #146 ) ;
#2 = VERTEX_POINT ( 'NONE', #113 ) ;
#3 = DIRECTION ( 'NONE',  ( -0.0000000000000000000, -0.0000000000000000000, -1.000000000000000000 ) ) ;
#4 = DIRECTION ( 'NONE',  ( 0.0000000000000000000, 0.0000000000000000000, 1.000000000000000000 ) ) ;
#5 = FACE_OUTER_BOUND ( 'NONE', #46, .T. ) ;
#6 = ORIENTED_EDGE ( 'NONE', *, *, #24, .T. ) ;
#7 = AXIS2_PLACEMENT_3D ( 'NONE', #101, #121, #21 ) ;
#8 = DIRECTION ( 'NONE',  ( 0.0000000000000000000, 0.0000000000000000000, 1.000000000000000000 ) ) ;
#9 = CIRCLE ( 'NONE', #159, 15.87500000000000000 ) ;
#10 = PRODUCT_DEFINITION ( 'UNKNOWN', '', #72, #74 ) ;
#11 = PERSON_AND_ORGANIZATION_ROLE ( 'creator' ) ;
#12 = LINE ( 'NONE', #161, #52 ) ;
#13 = EDGE_CURVE ( 'NONE', #147, #118, #94, .T. ) ;
#14 = CALENDAR_DATE ( 2018, 25, 7 ) ;
#15 = EDGE_CURVE ( 'NONE', #147, #2, #96, .T. ) ;
#16 = AXIS2_PLACEMENT_3D ( 'NONE', #114, #8, #138 ) ;
#17 = CARTESIAN_POINT ( 'NONE',  ( 0.0000000000000000000, 0.0000000000000000000, -0.5000000000000000000 ) ) ;
#18 = PERSON_AND_ORGANIZATION ( #63, #146 ) ;
#19 = MANIFOLD_SOLID_BREP ( 'Boss-Extrude1', #43 ) ;
#20 = ADVANCED_FACE ( 'NONE', ( #5 ), #47, .T. ) ;
#21 = DIRECTION ( 'NONE',  ( -1.000000000000000000, 0.0000000000000000000, 0.0000000000000000000 ) ) ;
#22 = SECURITY_CLASSIFICATION ( '', '', #45 ) ;
#23 = DATE_AND_TIME ( #73, #99 ) ;
#24 = EDGE_CURVE ( 'NONE', #2, #147, #9, .T. ) ;
#25 = COORDINATED_UNIVERSAL_TIME_OFFSET ( 5, 0, .BEHIND. ) ;
#26 = DIRECTION ( 'NONE',  ( 0.0000000000000000000, 0.0000000000000000000, 1.000000000000000000 ) ) ;
#27 = COORDINATED_UNIVERSAL_TIME_OFFSET ( 5, 0, .BEHIND. ) ;
#28 = EDGE_CURVE ( 'NONE', #2, #75, #12, .T. ) ;
#29 = DATE_TIME_ROLE ( 'classification_date' ) ;
#30 = APPROVAL ( #143, 'UNSPECIFIED' ) ;
#31 = DATE_AND_TIME ( #174, #92 ) ;
#32 = EDGE_CURVE ( 'NONE', #75, #118, #119, .T. ) ;
#33 = CALENDAR_DATE ( 2018, 25, 7 ) ;
#34 = CC_DESIGN_PERSON_AND_ORGANIZATION_ASSIGNMENT ( #126, #86, ( #72 ) ) ;
#35 = ADVANCED_FACE ( 'NONE', ( #163 ), #88, .T. ) ;
#36 = DIRECTION ( 'NONE',  ( -1.000000000000000000, 0.0000000000000000000, 0.0000000000000000000 ) ) ;
#37 = UNCERTAINTY_MEASURE_WITH_UNIT (LENGTH_MEASURE( 1.000000000000000100E-005 ), #104, 'distance_accuracy_value', 'NONE');
#38 = DIRECTION ( 'NONE',  ( -0.0000000000000000000, -0.0000000000000000000, -1.000000000000000000 ) ) ;
#39 = APPROVAL_DATE_TIME ( #77, #145 ) ;
#40 = ORIENTED_EDGE ( 'NONE', *, *, #89, .F. ) ;
#41 = CARTESIAN_POINT ( 'NONE',  ( 15.87500000000000000, 1.944126793646423200E-015, -0.5000000000000000000 ) ) ;
#42 = AXIS2_PLACEMENT_3D ( 'NONE', #17, #112, #62 ) ;
#43 = CLOSED_SHELL ( 'NONE', ( #20, #35, #59, #131 ) ) ;
#44 = PRODUCT_RELATED_PRODUCT_CATEGORY ( 'detail', '', ( #49 ) ) ;
#45 = SECURITY_CLASSIFICATION_LEVEL ( 'unclassified' ) ;
#46 = EDGE_LOOP ( 'NONE', ( #93, #98, #105, #82 ) ) ;
#47 = CYLINDRICAL_SURFACE ( 'NONE', #7, 15.87500000000000000 ) ;
#48 = AXIS2_PLACEMENT_3D ( 'NONE', #66, #171, #116 ) ;
#49 = PRODUCT ( 'Web Model 39236_39236', 'Web Model 39236_39236', '', ( #57 ) ) ;
#50 = PERSON_AND_ORGANIZATION ( #63, #146 ) ;
#51 = DIRECTION ( 'NONE',  ( 1.000000000000000000, 0.0000000000000000000, 0.0000000000000000000 ) ) ;
#52 = VECTOR ( 'NONE', #38, 1000.000000000000000 ) ;
#53 = ORIENTED_EDGE ( 'NONE', *, *, #15, .T. ) ;
#54 = PLANE ( 'NONE',  #16 ) ;
#55 = DIRECTION ( 'NONE',  ( 0.0000000000000000000, 0.0000000000000000000, 1.000000000000000000 ) ) ;
#56 = PERSON_AND_ORGANIZATION_ROLE ( 'classification_officer' ) ;
#57 = MECHANICAL_CONTEXT ( 'NONE', #129, 'mechanical' ) ;
#58 = AXIS2_PLACEMENT_3D ( 'NONE', #84, #55, #139 ) ;
#59 = ADVANCED_FACE ( 'NONE', ( #91 ), #83, .T. ) ;
#60 = PERSON_AND_ORGANIZATION ( #63, #146 ) ;
#61 = APPROVAL_PERSON_ORGANIZATION ( #133, #30, #97 ) ;
#62 = DIRECTION ( 'NONE',  ( 1.000000000000000000, 0.0000000000000000000, 0.0000000000000000000 ) ) ;
#63 = PERSON ( 'UNSPECIFIED', 'UNSPECIFIED', 'UNSPECIFIED', ('UNSPECIFIED'), ('UNSPECIFIED'), ('UNSPECIFIED') ) ;
#64 = CC_DESIGN_PERSON_AND_ORGANIZATION_ASSIGNMENT ( #50, #158, ( #49 ) ) ;
#65 = APPROVAL_PERSON_ORGANIZATION ( #100, #152, #156 ) ;
#66 = CARTESIAN_POINT ( 'NONE',  ( 0.0000000000000000000, 0.0000000000000000000, 0.0000000000000000000 ) ) ;
#67 = AXIS2_PLACEMENT_3D ( 'NONE', #165, #26, #149 ) ;
#68 = ADVANCED_BREP_SHAPE_REPRESENTATION ( 'Web Model 39236_39236', ( #19, #48 ), #107 ) ;
#69 = CALENDAR_DATE ( 2018, 25, 7 ) ;
#70 = APPROVAL_ROLE ( '' ) ;
#71 = LOCAL_TIME ( 13, 12, 5.000000000000000000, #102 ) ;
#72 = PRODUCT_DEFINITION_FORMATION_WITH_SPECIFIED_SOURCE ( 'ANY', '', #49, .NOT_KNOWN. ) ;
#73 = CALENDAR_DATE ( 2018, 25, 7 ) ;
#74 = DESIGN_CONTEXT ( 'detailed design', #141, 'design' ) ;
#75 = VERTEX_POINT ( 'NONE', #155 ) ;
#76 = CC_DESIGN_PERSON_AND_ORGANIZATION_ASSIGNMENT ( #1, #172, ( #10 ) ) ;
#77 = DATE_AND_TIME ( #14, #108 ) ;
#78 = LOCAL_TIME ( 13, 12, 5.000000000000000000, #135 ) ;
#79 = DIRECTION ( 'NONE',  ( 1.000000000000000000, 0.0000000000000000000, 0.0000000000000000000 ) ) ;
#80 = APPROVAL_DATE_TIME ( #31, #152 ) ;
#81 = PERSON_AND_ORGANIZATION ( #63, #146 ) ;
#82 = ORIENTED_EDGE ( 'NONE', *, *, #28, .F. ) ;
#83 = PLANE ( 'NONE',  #58 ) ;
#84 = CARTESIAN_POINT ( 'NONE',  ( 0.0000000000000000000, 0.0000000000000000000, 0.5000000000000000000 ) ) ;
#85 = CC_DESIGN_PERSON_AND_ORGANIZATION_ASSIGNMENT ( #18, #11, ( #72 ) ) ;
#86 = PERSON_AND_ORGANIZATION_ROLE ( 'design_supplier' ) ;
#87 = APPROVAL_STATUS ( 'not_yet_approved' ) ;
#88 = CYLINDRICAL_SURFACE ( 'NONE', #122, 15.87500000000000000 ) ;
#89 = EDGE_CURVE ( 'NONE', #118, #75, #109, .T. ) ;
#90 = DIRECTION ( 'NONE',  ( 0.0000000000000000000, 0.0000000000000000000, 1.000000000000000000 ) ) ;
#91 = FACE_OUTER_BOUND ( 'NONE', #166, .T. ) ;
#92 = LOCAL_TIME ( 13, 12, 5.000000000000000000, #25 ) ;
#93 = ORIENTED_EDGE ( 'NONE', *, *, #15, .F. ) ;
#94 = LINE ( 'NONE', #164, #167 ) ;
#95 = APPROVAL_STATUS ( 'not_yet_approved' ) ;
#96 = CIRCLE ( 'NONE', #151, 15.87500000000000000 ) ;
#97 = APPROVAL_ROLE ( '' ) ;
#98 = ORIENTED_EDGE ( 'NONE', *, *, #13, .T. ) ;
#99 = LOCAL_TIME ( 13, 12, 5.000000000000000000, #27 ) ;
#100 = PERSON_AND_ORGANIZATION ( #63, #146 ) ;
#101 = CARTESIAN_POINT ( 'NONE',  ( 0.0000000000000000000, 0.0000000000000000000, 0.5000000000000000000 ) ) ;
#102 = COORDINATED_UNIVERSAL_TIME_OFFSET ( 5, 0, .BEHIND. ) ;
#103 = CARTESIAN_POINT ( 'NONE',  ( 15.87500000000000000, 1.944126793646423200E-015, 0.5000000000000000000 ) ) ;
#104 =( LENGTH_UNIT ( ) NAMED_UNIT ( * ) SI_UNIT ( .MILLI., .METRE. ) );
#105 = ORIENTED_EDGE ( 'NONE', *, *, #89, .T. ) ;
#106 = PRODUCT_DEFINITION_SHAPE ( 'NONE', 'NONE',  #10 ) ;
#107 =( GEOMETRIC_REPRESENTATION_CONTEXT ( 3 ) GLOBAL_UNCERTAINTY_ASSIGNED_CONTEXT ( ( #37 ) ) GLOBAL_UNIT_ASSIGNED_CONTEXT ( ( #104, #153, #115 ) ) REPRESENTATION_CONTEXT ( 'NONE', 'WORKASPACE' ) );
#108 = LOCAL_TIME ( 13, 12, 5.000000000000000000, #136 ) ;
#109 = CIRCLE ( 'NONE', #67, 15.87500000000000000 ) ;
#110 = ORIENTED_EDGE ( 'NONE', *, *, #32, .T. ) ;
#111 = CC_DESIGN_APPROVAL ( #152, ( #72 ) ) ;
#112 = DIRECTION ( 'NONE',  ( 0.0000000000000000000, 0.0000000000000000000, 1.000000000000000000 ) ) ;
#113 = CARTESIAN_POINT ( 'NONE',  ( -15.87500000000000000, 0.0000000000000000000, 0.5000000000000000000 ) ) ;
#114 = CARTESIAN_POINT ( 'NONE',  ( 0.0000000000000000000, 0.0000000000000000000, -0.5000000000000000000 ) ) ;
#115 =( NAMED_UNIT ( * ) SI_UNIT ( $, .STERADIAN. ) SOLID_ANGLE_UNIT ( ) );
#116 = DIRECTION ( 'NONE',  ( 1.000000000000000000, 0.0000000000000000000, 0.0000000000000000000 ) ) ;
#117 = APPLICATION_PROTOCOL_DEFINITION ( 'international standard', 'config_control_design', 1994, #141 ) ;
#118 = VERTEX_POINT ( 'NONE', #41 ) ;
#119 = CIRCLE ( 'NONE', #42, 15.87500000000000000 ) ;
#120 = ORIENTED_EDGE ( 'NONE', *, *, #24, .F. ) ;
#121 = DIRECTION ( 'NONE',  ( -0.0000000000000000000, -0.0000000000000000000, -1.000000000000000000 ) ) ;
#122 = AXIS2_PLACEMENT_3D ( 'NONE', #125, #137, #36 ) ;
#123 = CARTESIAN_POINT ( 'NONE',  ( 0.0000000000000000000, 0.0000000000000000000, 0.5000000000000000000 ) ) ;
#124 = CARTESIAN_POINT ( 'NONE',  ( 0.0000000000000000000, 0.0000000000000000000, 0.5000000000000000000 ) ) ;
#125 = CARTESIAN_POINT ( 'NONE',  ( 0.0000000000000000000, 0.0000000000000000000, 0.5000000000000000000 ) ) ;
#126 = PERSON_AND_ORGANIZATION ( #63, #146 ) ;
#127 = DATE_AND_TIME ( #33, #71 ) ;
#128 = CC_DESIGN_PERSON_AND_ORGANIZATION_ASSIGNMENT ( #60, #56, ( #22 ) ) ;
#129 = APPLICATION_CONTEXT ( 'configuration controlled 3d designs of mechanical parts and assemblies' ) ;
#130 = CC_DESIGN_APPROVAL ( #145, ( #10 ) ) ;
#131 = ADVANCED_FACE ( 'NONE', ( #157 ), #54, .F. ) ;
#132 = CC_DESIGN_DATE_AND_TIME_ASSIGNMENT ( #162, #29, ( #22 ) ) ;
#133 = PERSON_AND_ORGANIZATION ( #63, #146 ) ;
#134 = EDGE_LOOP ( 'NONE', ( #144, #40 ) ) ;
#135 = COORDINATED_UNIVERSAL_TIME_OFFSET ( 5, 0, .BEHIND. ) ;
#136 = COORDINATED_UNIVERSAL_TIME_OFFSET ( 5, 0, .BEHIND. ) ;
#137 = DIRECTION ( 'NONE',  ( -0.0000000000000000000, -0.0000000000000000000, -1.000000000000000000 ) ) ;
#138 = DIRECTION ( 'NONE',  ( 1.000000000000000000, 0.0000000000000000000, -0.0000000000000000000 ) ) ;
#139 = DIRECTION ( 'NONE',  ( 1.000000000000000000, 0.0000000000000000000, -0.0000000000000000000 ) ) ;
#140 = SHAPE_DEFINITION_REPRESENTATION ( #106, #68 ) ;
#141 = APPLICATION_CONTEXT ( 'configuration controlled 3d designs of mechanical parts and assemblies' ) ;
#142 = CC_DESIGN_DATE_AND_TIME_ASSIGNMENT ( #127, #170, ( #10 ) ) ;
#143 = APPROVAL_STATUS ( 'not_yet_approved' ) ;
#144 = ORIENTED_EDGE ( 'NONE', *, *, #32, .F. ) ;
#145 = APPROVAL ( #87, 'UNSPECIFIED' ) ;
#146 = ORGANIZATION ( 'UNSPECIFIED', 'UNSPECIFIED', '' ) ;
#147 = VERTEX_POINT ( 'NONE', #103 ) ;
#148 = ORIENTED_EDGE ( 'NONE', *, *, #13, .F. ) ;
#149 = DIRECTION ( 'NONE',  ( 1.000000000000000000, 0.0000000000000000000, 0.0000000000000000000 ) ) ;
#150 = EDGE_LOOP ( 'NONE', ( #148, #120, #169, #110 ) ) ;
#151 = AXIS2_PLACEMENT_3D ( 'NONE', #124, #4, #79 ) ;
#152 = APPROVAL ( #95, 'UNSPECIFIED' ) ;
#153 =( NAMED_UNIT ( * ) PLANE_ANGLE_UNIT ( ) SI_UNIT ( $, .RADIAN. ) );
#154 = APPROVAL_DATE_TIME ( #23, #30 ) ;
#155 = CARTESIAN_POINT ( 'NONE',  ( -15.87500000000000000, 0.0000000000000000000, -0.5000000000000000000 ) ) ;
#156 = APPROVAL_ROLE ( '' ) ;
#157 = FACE_OUTER_BOUND ( 'NONE', #134, .T. ) ;
#158 = PERSON_AND_ORGANIZATION_ROLE ( 'design_owner' ) ;
#159 = AXIS2_PLACEMENT_3D ( 'NONE', #123, #90, #51 ) ;
#160 = CC_DESIGN_APPROVAL ( #30, ( #22 ) ) ;
#161 = CARTESIAN_POINT ( 'NONE',  ( -15.87500000000000000, 0.0000000000000000000, 0.5000000000000000000 ) ) ;
#162 = DATE_AND_TIME ( #69, #78 ) ;
#163 = FACE_OUTER_BOUND ( 'NONE', #150, .T. ) ;
#164 = CARTESIAN_POINT ( 'NONE',  ( 15.87500000000000000, 1.944126793646423200E-015, 0.5000000000000000000 ) ) ;
#165 = CARTESIAN_POINT ( 'NONE',  ( 0.0000000000000000000, 0.0000000000000000000, -0.5000000000000000000 ) ) ;
#166 = EDGE_LOOP ( 'NONE', ( #6, #53 ) ) ;
#167 = VECTOR ( 'NONE', #3, 1000.000000000000000 ) ;
#168 = APPLICATION_PROTOCOL_DEFINITION ( 'international standard', 'config_control_design', 1994, #129 ) ;
#169 = ORIENTED_EDGE ( 'NONE', *, *, #28, .T. ) ;
#170 = DATE_TIME_ROLE ( 'creation_date' ) ;
#171 = DIRECTION ( 'NONE',  ( 0.0000000000000000000, 0.0000000000000000000, 1.000000000000000000 ) ) ;
#172 = PERSON_AND_ORGANIZATION_ROLE ( 'creator' ) ;
#173 = CC_DESIGN_SECURITY_CLASSIFICATION ( #22, ( #72 ) ) ;
#174 = CALENDAR_DATE ( 2018, 25, 7 ) ;
#175 = APPROVAL_PERSON_ORGANIZATION ( #81, #145, #70 ) ;
ENDSEC;
END-ISO-10303-21;
