ISO-10303-21;
HEADER;
FILE_DESCRIPTION (( 'STEP AP203' ),
    '1' );
FILE_NAME ('Web Model 68741_64380.step',
    '2017-03-06T19:28:21',
    ( '' ),
    ( '' ),
    'SwSTEP 2.0',
    'SolidWorks 2016',
    '' );
FILE_SCHEMA (( 'CONFIG_CONTROL_DESIGN' ));
ENDSEC;

DATA;
#1 = FACE_OUTER_BOUND ( 'NONE', #31, .T. ) ;
#2 = CIRCLE ( 'NONE', #19, 37.50000000000000700 ) ;
#3 = EDGE_CURVE ( 'NONE', #79, #142, #2, .T. ) ;
#4 = AXIS2_PLACEMENT_3D ( 'NONE', #44, #93, #66 ) ;
#5 =( NAMED_UNIT ( * ) SI_UNIT ( $, .STERADIAN. ) SOLID_ANGLE_UNIT ( ) );
#6 = CARTESIAN_POINT ( 'NONE',  ( 0.0000000000000000000, 0.0000000000000000000, 0.0000000000000000000 ) ) ;
#7 = CALENDAR_DATE ( 2017, 6, 3 ) ;
#8 = VECTOR ( 'NONE', #83, 1000.000000000000000 ) ;
#9 = APPROVAL_STATUS ( 'not_yet_approved' ) ;
#10 = ORIENTED_EDGE ( 'NONE', *, *, #45, .T. ) ;
#11 = APPLICATION_PROTOCOL_DEFINITION ( 'international standard', 'config_control_design', 1994, #80 ) ;
#12 = DIRECTION ( 'NONE',  ( 1.000000000000000000, 0.0000000000000000000, 0.0000000000000000000 ) ) ;
#13 = DIRECTION ( 'NONE',  ( 1.000000000000000000, 0.0000000000000000000, 0.0000000000000000000 ) ) ;
#14 = LOCAL_TIME ( 14, 28, 21.00000000000000000, #15 ) ;
#15 = COORDINATED_UNIVERSAL_TIME_OFFSET ( 5, 0, .BEHIND. ) ;
#16 = EDGE_CURVE ( 'NONE', #142, #57, #132, .T. ) ;
#17 = APPROVAL_PERSON_ORGANIZATION ( #20, #133, #97 ) ;
#18 = PRODUCT ( 'Web Model 68741_64380', 'Web Model 68741_64380', '', ( #139 ) ) ;
#19 = AXIS2_PLACEMENT_3D ( 'NONE', #117, #56, #21 ) ;
#20 = PERSON_AND_ORGANIZATION ( #170, #115 ) ;
#21 = DIRECTION ( 'NONE',  ( 0.0000000000000000000, 0.0000000000000000000, -1.000000000000000000 ) ) ;
#22 = DATE_AND_TIME ( #23, #26 ) ;
#23 = CALENDAR_DATE ( 2017, 6, 3 ) ;
#24 = PERSON_AND_ORGANIZATION_ROLE ( 'design_supplier' ) ;
#25 = DIRECTION ( 'NONE',  ( -1.000000000000000000, -0.0000000000000000000, -0.0000000000000000000 ) ) ;
#26 = LOCAL_TIME ( 14, 28, 21.00000000000000000, #28 ) ;
#27 = CARTESIAN_POINT ( 'NONE',  ( 5.000000000000000000, 0.0000000000000000000, 0.0000000000000000000 ) ) ;
#28 = COORDINATED_UNIVERSAL_TIME_OFFSET ( 5, 0, .BEHIND. ) ;
#29 = AXIS2_PLACEMENT_3D ( 'NONE', #143, #140, #129 ) ;
#30 = PERSON_AND_ORGANIZATION ( #170, #115 ) ;
#31 = EDGE_LOOP ( 'NONE', ( #114, #74, #85, #10 ) ) ;
#32 =( LENGTH_UNIT ( ) NAMED_UNIT ( * ) SI_UNIT ( .MILLI., .METRE. ) );
#33 = AXIS2_PLACEMENT_3D ( 'NONE', #27, #50, #152 ) ;
#34 = DIRECTION ( 'NONE',  ( 1.000000000000000000, 0.0000000000000000000, 0.0000000000000000000 ) ) ;
#35 = PERSON_AND_ORGANIZATION_ROLE ( 'classification_officer' ) ;
#36 = CARTESIAN_POINT ( 'NONE',  ( 0.0000000000000000000, 0.0000000000000000000, 0.0000000000000000000 ) ) ;
#37 = PERSON_AND_ORGANIZATION ( #170, #115 ) ;
#38 = PERSON_AND_ORGANIZATION ( #170, #115 ) ;
#39 = ORIENTED_EDGE ( 'NONE', *, *, #45, .F. ) ;
#40 = AXIS2_PLACEMENT_3D ( 'NONE', #6, #162, #34 ) ;
#41 = APPLICATION_CONTEXT ( 'configuration controlled 3d designs of mechanical parts and assemblies' ) ;
#42 = PRODUCT_DEFINITION_SHAPE ( 'NONE', 'NONE',  #53 ) ;
#43 = SHAPE_DEFINITION_REPRESENTATION ( #42, #122 ) ;
#44 = CARTESIAN_POINT ( 'NONE',  ( 5.000000000000000000, 0.0000000000000000000, 0.0000000000000000000 ) ) ;
#45 = EDGE_CURVE ( 'NONE', #57, #123, #106, .T. ) ;
#46 = DIRECTION ( 'NONE',  ( 0.0000000000000000000, 0.0000000000000000000, -1.000000000000000000 ) ) ;
#47 = APPROVAL_DATE_TIME ( #49, #86 ) ;
#48 = CC_DESIGN_PERSON_AND_ORGANIZATION_ASSIGNMENT ( #112, #172, ( #18 ) ) ;
#49 = DATE_AND_TIME ( #54, #55 ) ;
#50 = DIRECTION ( 'NONE',  ( -1.000000000000000000, -0.0000000000000000000, -0.0000000000000000000 ) ) ;
#51 = CARTESIAN_POINT ( 'NONE',  ( 5.000000000000000000, 4.592425496802575200E-015, -37.50000000000000700 ) ) ;
#52 = APPROVAL_ROLE ( '' ) ;
#53 = PRODUCT_DEFINITION ( 'UNKNOWN', '', #77, #64 ) ;
#54 = CALENDAR_DATE ( 2017, 6, 3 ) ;
#55 = LOCAL_TIME ( 14, 28, 21.00000000000000000, #58 ) ;
#56 = DIRECTION ( 'NONE',  ( 1.000000000000000000, 0.0000000000000000000, 0.0000000000000000000 ) ) ;
#57 = VERTEX_POINT ( 'NONE', #70 ) ;
#58 = COORDINATED_UNIVERSAL_TIME_OFFSET ( 5, 0, .BEHIND. ) ;
#59 = ORIENTED_EDGE ( 'NONE', *, *, #131, .T. ) ;
#60 = EDGE_LOOP ( 'NONE', ( #39, #87 ) ) ;
#61 = APPROVAL ( #174, 'UNSPECIFIED' ) ;
#62 = CARTESIAN_POINT ( 'NONE',  ( 5.000000000000000000, 0.0000000000000000000, 0.0000000000000000000 ) ) ;
#63 = APPROVAL_PERSON_ORGANIZATION ( #68, #86, #159 ) ;
#64 = DESIGN_CONTEXT ( 'detailed design', #80, 'design' ) ;
#65 = CC_DESIGN_APPROVAL ( #61, ( #53 ) ) ;
#66 = DIRECTION ( 'NONE',  ( 0.0000000000000000000, 0.0000000000000000000, -1.000000000000000000 ) ) ;
#67 = CARTESIAN_POINT ( 'NONE',  ( 5.000000000000000000, 4.592425496802575200E-015, -37.50000000000000700 ) ) ;
#68 = PERSON_AND_ORGANIZATION ( #170, #115 ) ;
#69 = CC_DESIGN_PERSON_AND_ORGANIZATION_ASSIGNMENT ( #90, #120, ( #53 ) ) ;
#70 = CARTESIAN_POINT ( 'NONE',  ( 0.0000000000000000000, 0.0000000000000000000, 37.50000000000000700 ) ) ;
#71 = DATE_AND_TIME ( #78, #82 ) ;
#72 = ADVANCED_FACE ( 'NONE', ( #1 ), #156, .T. ) ;
#73 = PLANE ( 'NONE',  #4 ) ;
#74 = ORIENTED_EDGE ( 'NONE', *, *, #131, .F. ) ;
#75 = CC_DESIGN_DATE_AND_TIME_ASSIGNMENT ( #71, #138, ( #53 ) ) ;
#76 = FACE_OUTER_BOUND ( 'NONE', #60, .T. ) ;
#77 = PRODUCT_DEFINITION_FORMATION_WITH_SPECIFIED_SOURCE ( 'ANY', '', #18, .NOT_KNOWN. ) ;
#78 = CALENDAR_DATE ( 2017, 6, 3 ) ;
#79 = VERTEX_POINT ( 'NONE', #51 ) ;
#80 = APPLICATION_CONTEXT ( 'configuration controlled 3d designs of mechanical parts and assemblies' ) ;
#81 = ORIENTED_EDGE ( 'NONE', *, *, #99, .T. ) ;
#82 = LOCAL_TIME ( 14, 28, 21.00000000000000000, #88 ) ;
#83 = DIRECTION ( 'NONE',  ( -1.000000000000000000, -0.0000000000000000000, -0.0000000000000000000 ) ) ;
#84 = DATE_AND_TIME ( #7, #14 ) ;
#85 = ORIENTED_EDGE ( 'NONE', *, *, #16, .T. ) ;
#86 = APPROVAL ( #9, 'UNSPECIFIED' ) ;
#87 = ORIENTED_EDGE ( 'NONE', *, *, #99, .F. ) ;
#88 = COORDINATED_UNIVERSAL_TIME_OFFSET ( 5, 0, .BEHIND. ) ;
#89 = CC_DESIGN_APPROVAL ( #86, ( #77 ) ) ;
#90 = PERSON_AND_ORGANIZATION ( #170, #115 ) ;
#91 = APPROVAL_DATE_TIME ( #94, #61 ) ;
#92 = ORIENTED_EDGE ( 'NONE', *, *, #3, .F. ) ;
#93 = DIRECTION ( 'NONE',  ( 1.000000000000000000, 0.0000000000000000000, 0.0000000000000000000 ) ) ;
#94 = DATE_AND_TIME ( #95, #100 ) ;
#95 = CALENDAR_DATE ( 2017, 6, 3 ) ;
#96 = PERSON_AND_ORGANIZATION_ROLE ( 'creator' ) ;
#97 = APPROVAL_ROLE ( '' ) ;
#98 = EDGE_LOOP ( 'NONE', ( #59, #113 ) ) ;
#99 = EDGE_CURVE ( 'NONE', #123, #57, #163, .T. ) ;
#100 = LOCAL_TIME ( 14, 28, 21.00000000000000000, #104 ) ;
#101 = CC_DESIGN_PERSON_AND_ORGANIZATION_ASSIGNMENT ( #38, #96, ( #77 ) ) ;
#102 = ADVANCED_FACE ( 'NONE', ( #76 ), #130, .F. ) ;
#103 = MANIFOLD_SOLID_BREP ( 'Extrude1', #155 ) ;
#104 = COORDINATED_UNIVERSAL_TIME_OFFSET ( 5, 0, .BEHIND. ) ;
#105 =( GEOMETRIC_REPRESENTATION_CONTEXT ( 3 ) GLOBAL_UNCERTAINTY_ASSIGNED_CONTEXT ( ( #135 ) ) GLOBAL_UNIT_ASSIGNED_CONTEXT ( ( #32, #111, #5 ) ) REPRESENTATION_CONTEXT ( 'NONE', 'WORKASPACE' ) );
#106 = CIRCLE ( 'NONE', #148, 37.50000000000000700 ) ;
#107 = ADVANCED_FACE ( 'NONE', ( #168 ), #147, .T. ) ;
#108 = APPROVAL_PERSON_ORGANIZATION ( #109, #61, #52 ) ;
#109 = PERSON_AND_ORGANIZATION ( #170, #115 ) ;
#110 = CC_DESIGN_PERSON_AND_ORGANIZATION_ASSIGNMENT ( #37, #24, ( #77 ) ) ;
#111 =( NAMED_UNIT ( * ) PLANE_ANGLE_UNIT ( ) SI_UNIT ( $, .RADIAN. ) );
#112 = PERSON_AND_ORGANIZATION ( #170, #115 ) ;
#113 = ORIENTED_EDGE ( 'NONE', *, *, #3, .T. ) ;
#114 = ORIENTED_EDGE ( 'NONE', *, *, #161, .F. ) ;
#115 = ORGANIZATION ( 'UNSPECIFIED', 'UNSPECIFIED', '' ) ;
#116 = APPROVAL_STATUS ( 'not_yet_approved' ) ;
#117 = CARTESIAN_POINT ( 'NONE',  ( 5.000000000000000000, 0.0000000000000000000, 0.0000000000000000000 ) ) ;
#118 = SECURITY_CLASSIFICATION ( '', '', #128 ) ;
#119 = DIRECTION ( 'NONE',  ( 0.0000000000000000000, 0.0000000000000000000, 1.000000000000000000 ) ) ;
#120 = PERSON_AND_ORGANIZATION_ROLE ( 'creator' ) ;
#121 = AXIS2_PLACEMENT_3D ( 'NONE', #62, #151, #160 ) ;
#122 = ADVANCED_BREP_SHAPE_REPRESENTATION ( 'Web Model 68741_64380', ( #103, #40 ), #105 ) ;
#123 = VERTEX_POINT ( 'NONE', #149 ) ;
#124 = CC_DESIGN_PERSON_AND_ORGANIZATION_ASSIGNMENT ( #30, #35, ( #118 ) ) ;
#125 = DATE_TIME_ROLE ( 'classification_date' ) ;
#126 = DIRECTION ( 'NONE',  ( 0.0000000000000000000, 0.0000000000000000000, -1.000000000000000000 ) ) ;
#127 = CC_DESIGN_DATE_AND_TIME_ASSIGNMENT ( #22, #125, ( #118 ) ) ;
#128 = SECURITY_CLASSIFICATION_LEVEL ( 'unclassified' ) ;
#129 = DIRECTION ( 'NONE',  ( 0.0000000000000000000, 0.0000000000000000000, -1.000000000000000000 ) ) ;
#130 = PLANE ( 'NONE',  #29 ) ;
#131 = EDGE_CURVE ( 'NONE', #142, #79, #169, .T. ) ;
#132 = LINE ( 'NONE', #145, #8 ) ;
#133 = APPROVAL ( #116, 'UNSPECIFIED' ) ;
#134 = ADVANCED_FACE ( 'NONE', ( #153 ), #73, .T. ) ;
#135 = UNCERTAINTY_MEASURE_WITH_UNIT (LENGTH_MEASURE( 1.000000000000000100E-005 ), #32, 'distance_accuracy_value', 'NONE');
#136 = VECTOR ( 'NONE', #171, 1000.000000000000000 ) ;
#137 = APPLICATION_PROTOCOL_DEFINITION ( 'international standard', 'config_control_design', 1994, #41 ) ;
#138 = DATE_TIME_ROLE ( 'creation_date' ) ;
#139 = MECHANICAL_CONTEXT ( 'NONE', #41, 'mechanical' ) ;
#140 = DIRECTION ( 'NONE',  ( 1.000000000000000000, 0.0000000000000000000, 0.0000000000000000000 ) ) ;
#141 = APPROVAL_DATE_TIME ( #84, #133 ) ;
#142 = VERTEX_POINT ( 'NONE', #157 ) ;
#143 = CARTESIAN_POINT ( 'NONE',  ( 0.0000000000000000000, 0.0000000000000000000, 0.0000000000000000000 ) ) ;
#144 = CARTESIAN_POINT ( 'NONE',  ( 0.0000000000000000000, 0.0000000000000000000, 0.0000000000000000000 ) ) ;
#145 = CARTESIAN_POINT ( 'NONE',  ( 5.000000000000000000, 0.0000000000000000000, 37.50000000000000700 ) ) ;
#146 = CC_DESIGN_APPROVAL ( #133, ( #118 ) ) ;
#147 = CYLINDRICAL_SURFACE ( 'NONE', #164, 37.50000000000000700 ) ;
#148 = AXIS2_PLACEMENT_3D ( 'NONE', #144, #13, #126 ) ;
#149 = CARTESIAN_POINT ( 'NONE',  ( 0.0000000000000000000, 4.592425496802575200E-015, -37.50000000000000700 ) ) ;
#150 = ORIENTED_EDGE ( 'NONE', *, *, #161, .T. ) ;
#151 = DIRECTION ( 'NONE',  ( 1.000000000000000000, 0.0000000000000000000, 0.0000000000000000000 ) ) ;
#152 = DIRECTION ( 'NONE',  ( 0.0000000000000000000, 0.0000000000000000000, 1.000000000000000000 ) ) ;
#153 = FACE_OUTER_BOUND ( 'NONE', #98, .T. ) ;
#154 = LINE ( 'NONE', #67, #136 ) ;
#155 = CLOSED_SHELL ( 'NONE', ( #107, #72, #134, #102 ) ) ;
#156 = CYLINDRICAL_SURFACE ( 'NONE', #33, 37.50000000000000700 ) ;
#157 = CARTESIAN_POINT ( 'NONE',  ( 5.000000000000000000, 0.0000000000000000000, 37.50000000000000700 ) ) ;
#158 = CC_DESIGN_SECURITY_CLASSIFICATION ( #118, ( #77 ) ) ;
#159 = APPROVAL_ROLE ( '' ) ;
#160 = DIRECTION ( 'NONE',  ( 0.0000000000000000000, 0.0000000000000000000, -1.000000000000000000 ) ) ;
#161 = EDGE_CURVE ( 'NONE', #79, #123, #154, .T. ) ;
#162 = DIRECTION ( 'NONE',  ( 0.0000000000000000000, 0.0000000000000000000, 1.000000000000000000 ) ) ;
#163 = CIRCLE ( 'NONE', #173, 37.50000000000000700 ) ;
#164 = AXIS2_PLACEMENT_3D ( 'NONE', #175, #25, #119 ) ;
#165 = EDGE_LOOP ( 'NONE', ( #92, #150, #81, #166 ) ) ;
#166 = ORIENTED_EDGE ( 'NONE', *, *, #16, .F. ) ;
#167 = PRODUCT_RELATED_PRODUCT_CATEGORY ( 'detail', '', ( #18 ) ) ;
#168 = FACE_OUTER_BOUND ( 'NONE', #165, .T. ) ;
#169 = CIRCLE ( 'NONE', #121, 37.50000000000000700 ) ;
#170 = PERSON ( 'UNSPECIFIED', 'UNSPECIFIED', 'UNSPECIFIED', ('UNSPECIFIED'), ('UNSPECIFIED'), ('UNSPECIFIED') ) ;
#171 = DIRECTION ( 'NONE',  ( -1.000000000000000000, -0.0000000000000000000, -0.0000000000000000000 ) ) ;
#172 = PERSON_AND_ORGANIZATION_ROLE ( 'design_owner' ) ;
#173 = AXIS2_PLACEMENT_3D ( 'NONE', #36, #12, #46 ) ;
#174 = APPROVAL_STATUS ( 'not_yet_approved' ) ;
#175 = CARTESIAN_POINT ( 'NONE',  ( 5.000000000000000000, 0.0000000000000000000, 0.0000000000000000000 ) ) ;
ENDSEC;
END-ISO-10303-21;
