ISO-10303-21;
HEADER;
FILE_DESCRIPTION (( 'STEP AP203' ),
    '1' );
FILE_NAME ('Web Model 62607.STEP',
    '2017-01-31T18:22:12',
    ( '' ),
    ( '' ),
    'SwSTEP 2.0',
    'SolidWorks 2016',
    '' );
FILE_SCHEMA (( 'CONFIG_CONTROL_DESIGN' ));
ENDSEC;

DATA;
#1 = VECTOR ( 'NONE', #32, 1000.000000000000000 ) ;
#2 = CC_DESIGN_DATE_AND_TIME_ASSIGNMENT ( #44, #177, ( #71 ) ) ;
#3 = APPROVAL_ROLE ( '' ) ;
#4 = CC_DESIGN_PERSON_AND_ORGANIZATION_ASSIGNMENT ( #165, #40, ( #60 ) ) ;
#5 = APPLICATION_PROTOCOL_DEFINITION ( 'international standard', 'config_control_design', 1994, #227 ) ;
#6 = ORIENTED_EDGE ( 'NONE', *, *, #26, .F. ) ;
#7 = DIRECTION ( 'NONE',  ( 0.0000000000000000000, 0.0000000000000000000, 1.000000000000000000 ) ) ;
#8 = APPROVAL_STATUS ( 'not_yet_approved' ) ;
#9 = ORIENTED_EDGE ( 'NONE', *, *, #93, .F. ) ;
#10 = ORIENTED_EDGE ( 'NONE', *, *, #61, .T. ) ;
#11 = PERSON ( 'UNSPECIFIED', 'UNSPECIFIED', 'UNSPECIFIED', ('UNSPECIFIED'), ('UNSPECIFIED'), ('UNSPECIFIED') ) ;
#12 = DATE_AND_TIME ( #96, #210 ) ;
#13 = CC_DESIGN_PERSON_AND_ORGANIZATION_ASSIGNMENT ( #199, #57, ( #29 ) ) ;
#14 = EDGE_LOOP ( 'NONE', ( #17, #9, #6, #81 ) ) ;
#15 = PRODUCT_DEFINITION_FORMATION_WITH_SPECIFIED_SOURCE ( 'ANY', '', #29, .NOT_KNOWN. ) ;
#16 = COORDINATED_UNIVERSAL_TIME_OFFSET ( 5, 0, .BEHIND. ) ;
#17 = ORIENTED_EDGE ( 'NONE', *, *, #182, .T. ) ;
#18 = CARTESIAN_POINT ( 'NONE',  ( -37.50000000000000000, 37.50000000000000000, 4.000000000000000000 ) ) ;
#19 = EDGE_CURVE ( 'NONE', #187, #181, #104, .T. ) ;
#20 = PLANE ( 'NONE',  #84 ) ;
#21 = CARTESIAN_POINT ( 'NONE',  ( -37.50000000000000000, 37.50000000000000000, 4.000000000000000000 ) ) ;
#22 = CARTESIAN_POINT ( 'NONE',  ( 37.50000000000000000, 37.50000000000000000, 4.000000000000000000 ) ) ;
#23 = VERTEX_POINT ( 'NONE', #72 ) ;
#24 = ADVANCED_FACE ( 'NONE', ( #90 ), #219, .F. ) ;
#25 = VERTEX_POINT ( 'NONE', #115 ) ;
#26 = EDGE_CURVE ( 'NONE', #51, #59, #170, .T. ) ;
#27 = APPROVAL_STATUS ( 'not_yet_approved' ) ;
#28 = DIRECTION ( 'NONE',  ( -0.0000000000000000000, 1.000000000000000000, -0.0000000000000000000 ) ) ;
#29 = PRODUCT ( 'Web Model 62607', 'Web Model 62607', '', ( #137 ) ) ;
#30 = EDGE_CURVE ( 'NONE', #181, #176, #216, .T. ) ;
#31 = VECTOR ( 'NONE', #63, 1000.000000000000000 ) ;
#32 = DIRECTION ( 'NONE',  ( 0.0000000000000000000, -1.000000000000000000, 0.0000000000000000000 ) ) ;
#33 = LINE ( 'NONE', #156, #175 ) ;
#34 = ORIENTED_EDGE ( 'NONE', *, *, #61, .F. ) ;
#35 = CC_DESIGN_DATE_AND_TIME_ASSIGNMENT ( #12, #191, ( #60 ) ) ;
#36 = CARTESIAN_POINT ( 'NONE',  ( -37.50000000000000000, 37.50000000000000000, 4.000000000000000000 ) ) ;
#37 = DIRECTION ( 'NONE',  ( 0.0000000000000000000, -1.000000000000000000, 0.0000000000000000000 ) ) ;
#38 = LOCAL_TIME ( 13, 22, 12.00000000000000000, #16 ) ;
#39 = COORDINATED_UNIVERSAL_TIME_OFFSET ( 5, 0, .BEHIND. ) ;
#40 = PERSON_AND_ORGANIZATION_ROLE ( 'classification_officer' ) ;
#41 = EDGE_LOOP ( 'NONE', ( #10, #230, #126, #108 ) ) ;
#42 = PERSON_AND_ORGANIZATION_ROLE ( 'creator' ) ;
#43 = DIRECTION ( 'NONE',  ( 1.000000000000000000, 0.0000000000000000000, 0.0000000000000000000 ) ) ;
#44 = DATE_AND_TIME ( #80, #97 ) ;
#45 = CARTESIAN_POINT ( 'NONE',  ( 37.50000000000000000, 37.50000000000000000, 4.000000000000000000 ) ) ;
#46 =( GEOMETRIC_REPRESENTATION_CONTEXT ( 3 ) GLOBAL_UNCERTAINTY_ASSIGNED_CONTEXT ( ( #215 ) ) GLOBAL_UNIT_ASSIGNED_CONTEXT ( ( #212, #101, #225 ) ) REPRESENTATION_CONTEXT ( 'NONE', 'WORKASPACE' ) );
#47 = APPROVAL_PERSON_ORGANIZATION ( #229, #99, #119 ) ;
#48 = ORIENTED_EDGE ( 'NONE', *, *, #30, .T. ) ;
#49 = EDGE_CURVE ( 'NONE', #25, #181, #33, .T. ) ;
#50 = VECTOR ( 'NONE', #92, 1000.000000000000000 ) ;
#51 = VERTEX_POINT ( 'NONE', #112 ) ;
#52 = CARTESIAN_POINT ( 'NONE',  ( -37.50000000000000000, -37.50000000000000000, 4.000000000000000000 ) ) ;
#53 = PLANE ( 'NONE',  #147 ) ;
#54 = DESIGN_CONTEXT ( 'detailed design', #123, 'design' ) ;
#55 = VECTOR ( 'NONE', #189, 1000.000000000000000 ) ;
#56 = ORIENTED_EDGE ( 'NONE', *, *, #198, .F. ) ;
#57 = PERSON_AND_ORGANIZATION_ROLE ( 'design_owner' ) ;
#58 = CC_DESIGN_PERSON_AND_ORGANIZATION_ASSIGNMENT ( #195, #161, ( #15 ) ) ;
#59 = VERTEX_POINT ( 'NONE', #36 ) ;
#60 = SECURITY_CLASSIFICATION ( '', '', #82 ) ;
#61 = EDGE_CURVE ( 'NONE', #59, #25, #120, .T. ) ;
#62 = CARTESIAN_POINT ( 'NONE',  ( 37.50000000000000000, 37.50000000000000000, 4.000000000000000000 ) ) ;
#63 = DIRECTION ( 'NONE',  ( -0.0000000000000000000, -0.0000000000000000000, -1.000000000000000000 ) ) ;
#64 = LINE ( 'NONE', #141, #202 ) ;
#65 = ORIENTED_EDGE ( 'NONE', *, *, #49, .T. ) ;
#66 = CC_DESIGN_APPROVAL ( #79, ( #15 ) ) ;
#67 = AXIS2_PLACEMENT_3D ( 'NONE', #155, #174, #204 ) ;
#68 = CALENDAR_DATE ( 2017, 31, 1 ) ;
#69 = FACE_OUTER_BOUND ( 'NONE', #217, .T. ) ;
#70 = CLOSED_SHELL ( 'NONE', ( #117, #136, #224, #78, #140, #24 ) ) ;
#71 = PRODUCT_DEFINITION ( 'UNKNOWN', '', #15, #54 ) ;
#72 = CARTESIAN_POINT ( 'NONE',  ( 37.50000000000000000, 37.50000000000000000, 0.0000000000000000000 ) ) ;
#73 = CARTESIAN_POINT ( 'NONE',  ( -37.50000000000000000, -37.50000000000000000, 0.0000000000000000000 ) ) ;
#74 = PRODUCT_RELATED_PRODUCT_CATEGORY ( 'detail', '', ( #29 ) ) ;
#75 = APPROVAL_DATE_TIME ( #128, #99 ) ;
#76 = ORIENTED_EDGE ( 'NONE', *, *, #93, .T. ) ;
#77 = DIRECTION ( 'NONE',  ( 1.000000000000000000, 0.0000000000000000000, -0.0000000000000000000 ) ) ;
#78 = ADVANCED_FACE ( 'NONE', ( #145 ), #53, .F. ) ;
#79 = APPROVAL ( #8, 'UNSPECIFIED' ) ;
#80 = CALENDAR_DATE ( 2017, 31, 1 ) ;
#81 = ORIENTED_EDGE ( 'NONE', *, *, #201, .T. ) ;
#82 = SECURITY_CLASSIFICATION_LEVEL ( 'unclassified' ) ;
#83 = FACE_OUTER_BOUND ( 'NONE', #152, .T. ) ;
#84 = AXIS2_PLACEMENT_3D ( 'NONE', #94, #221, #130 ) ;
#85 = EDGE_LOOP ( 'NONE', ( #160, #133, #122, #105 ) ) ;
#86 = MANIFOLD_SOLID_BREP ( 'Extrude1', #70 ) ;
#87 = APPROVAL_DATE_TIME ( #200, #102 ) ;
#88 = FACE_OUTER_BOUND ( 'NONE', #114, .T. ) ;
#89 = ORGANIZATION ( 'UNSPECIFIED', 'UNSPECIFIED', '' ) ;
#90 = FACE_OUTER_BOUND ( 'NONE', #85, .T. ) ;
#91 = CC_DESIGN_PERSON_AND_ORGANIZATION_ASSIGNMENT ( #235, #157, ( #15 ) ) ;
#92 = DIRECTION ( 'NONE',  ( 1.000000000000000000, 0.0000000000000000000, 0.0000000000000000000 ) ) ;
#93 = EDGE_CURVE ( 'NONE', #59, #187, #220, .T. ) ;
#94 = CARTESIAN_POINT ( 'NONE',  ( -37.50000000000000000, -37.50000000000000000, 4.000000000000000000 ) ) ;
#95 = DIRECTION ( 'NONE',  ( -0.0000000000000000000, -0.0000000000000000000, -1.000000000000000000 ) ) ;
#96 = CALENDAR_DATE ( 2017, 31, 1 ) ;
#97 = LOCAL_TIME ( 13, 22, 12.00000000000000000, #39 ) ;
#98 = CARTESIAN_POINT ( 'NONE',  ( -37.50000000000000000, 37.50000000000000000, 4.000000000000000000 ) ) ;
#99 = APPROVAL ( #27, 'UNSPECIFIED' ) ;
#100 = LOCAL_TIME ( 13, 22, 12.00000000000000000, #232 ) ;
#101 =( NAMED_UNIT ( * ) PLANE_ANGLE_UNIT ( ) SI_UNIT ( $, .RADIAN. ) );
#102 = APPROVAL ( #193, 'UNSPECIFIED' ) ;
#103 = DIRECTION ( 'NONE',  ( 1.000000000000000000, 0.0000000000000000000, 0.0000000000000000000 ) ) ;
#104 = LINE ( 'NONE', #154, #1 ) ;
#105 = ORIENTED_EDGE ( 'NONE', *, *, #30, .F. ) ;
#106 = CC_DESIGN_SECURITY_CLASSIFICATION ( #60, ( #15 ) ) ;
#107 = APPROVAL_PERSON_ORGANIZATION ( #118, #102, #209 ) ;
#108 = ORIENTED_EDGE ( 'NONE', *, *, #26, .T. ) ;
#109 = COORDINATED_UNIVERSAL_TIME_OFFSET ( 5, 0, .BEHIND. ) ;
#110 = VECTOR ( 'NONE', #28, 1000.000000000000000 ) ;
#111 = CC_DESIGN_APPROVAL ( #99, ( #71 ) ) ;
#112 = CARTESIAN_POINT ( 'NONE',  ( 37.50000000000000000, 37.50000000000000000, 4.000000000000000000 ) ) ;
#113 = PLANE ( 'NONE',  #214 ) ;
#114 = EDGE_LOOP ( 'NONE', ( #48, #56, #178, #65 ) ) ;
#115 = CARTESIAN_POINT ( 'NONE',  ( -37.50000000000000000, -37.50000000000000000, 4.000000000000000000 ) ) ;
#116 = AXIS2_PLACEMENT_3D ( 'NONE', #98, #77, #205 ) ;
#117 = ADVANCED_FACE ( 'NONE', ( #69 ), #188, .F. ) ;
#118 = PERSON_AND_ORGANIZATION ( #11, #89 ) ;
#119 = APPROVAL_ROLE ( '' ) ;
#120 = LINE ( 'NONE', #18, #55 ) ;
#121 = CARTESIAN_POINT ( 'NONE',  ( 0.0000000000000000000, 0.0000000000000000000, 0.0000000000000000000 ) ) ;
#122 = ORIENTED_EDGE ( 'NONE', *, *, #185, .F. ) ;
#123 = APPLICATION_CONTEXT ( 'configuration controlled 3d designs of mechanical parts and assemblies' ) ;
#124 = DIRECTION ( 'NONE',  ( -0.0000000000000000000, -0.0000000000000000000, -1.000000000000000000 ) ) ;
#125 = VECTOR ( 'NONE', #95, 1000.000000000000000 ) ;
#126 = ORIENTED_EDGE ( 'NONE', *, *, #173, .T. ) ;
#127 = CC_DESIGN_PERSON_AND_ORGANIZATION_ASSIGNMENT ( #197, #42, ( #71 ) ) ;
#128 = DATE_AND_TIME ( #132, #180 ) ;
#129 = CC_DESIGN_APPROVAL ( #102, ( #60 ) ) ;
#130 = DIRECTION ( 'NONE',  ( 0.0000000000000000000, -0.0000000000000000000, 1.000000000000000000 ) ) ;
#131 = ADVANCED_BREP_SHAPE_REPRESENTATION ( 'Web Model 62607', ( #86, #151 ), #46 ) ;
#132 = CALENDAR_DATE ( 2017, 31, 1 ) ;
#133 = ORIENTED_EDGE ( 'NONE', *, *, #182, .F. ) ;
#134 = DIRECTION ( 'NONE',  ( 1.000000000000000000, 0.0000000000000000000, 0.0000000000000000000 ) ) ;
#135 = APPROVAL_DATE_TIME ( #166, #79 ) ;
#136 = ADVANCED_FACE ( 'NONE', ( #88 ), #20, .F. ) ;
#137 = MECHANICAL_CONTEXT ( 'NONE', #227, 'mechanical' ) ;
#138 = DIRECTION ( 'NONE',  ( -1.000000000000000000, -0.0000000000000000000, -0.0000000000000000000 ) ) ;
#139 = VECTOR ( 'NONE', #226, 1000.000000000000000 ) ;
#140 = ADVANCED_FACE ( 'NONE', ( #183 ), #113, .T. ) ;
#141 = CARTESIAN_POINT ( 'NONE',  ( -37.50000000000000000, 37.50000000000000000, 0.0000000000000000000 ) ) ;
#142 = ORIENTED_EDGE ( 'NONE', *, *, #49, .F. ) ;
#143 = APPROVAL_PERSON_ORGANIZATION ( #190, #79, #3 ) ;
#144 = PLANE ( 'NONE',  #231 ) ;
#145 = FACE_OUTER_BOUND ( 'NONE', #14, .T. ) ;
#146 = ORIENTED_EDGE ( 'NONE', *, *, #19, .T. ) ;
#147 = AXIS2_PLACEMENT_3D ( 'NONE', #222, #37, #153 ) ;
#148 = CALENDAR_DATE ( 2017, 31, 1 ) ;
#149 = VECTOR ( 'NONE', #124, 1000.000000000000000 ) ;
#150 = LINE ( 'NONE', #158, #110 ) ;
#151 = AXIS2_PLACEMENT_3D ( 'NONE', #121, #7, #103 ) ;
#152 = EDGE_LOOP ( 'NONE', ( #211, #206, #234, #169 ) ) ;
#153 = DIRECTION ( 'NONE',  ( 0.0000000000000000000, -0.0000000000000000000, -1.000000000000000000 ) ) ;
#154 = CARTESIAN_POINT ( 'NONE',  ( -37.50000000000000000, 37.50000000000000000, 0.0000000000000000000 ) ) ;
#155 = CARTESIAN_POINT ( 'NONE',  ( -37.50000000000000000, -37.50000000000000000, 0.0000000000000000000 ) ) ;
#156 = CARTESIAN_POINT ( 'NONE',  ( -37.50000000000000000, -37.50000000000000000, 4.000000000000000000 ) ) ;
#157 = PERSON_AND_ORGANIZATION_ROLE ( 'design_supplier' ) ;
#158 = CARTESIAN_POINT ( 'NONE',  ( 37.50000000000000000, 37.50000000000000000, 0.0000000000000000000 ) ) ;
#159 = LINE ( 'NONE', #228, #149 ) ;
#160 = ORIENTED_EDGE ( 'NONE', *, *, #19, .F. ) ;
#161 = PERSON_AND_ORGANIZATION_ROLE ( 'creator' ) ;
#162 = CARTESIAN_POINT ( 'NONE',  ( -37.50000000000000000, -37.50000000000000000, 4.000000000000000000 ) ) ;
#163 = APPLICATION_PROTOCOL_DEFINITION ( 'international standard', 'config_control_design', 1994, #123 ) ;
#164 = DIRECTION ( 'NONE',  ( -1.000000000000000000, 0.0000000000000000000, 0.0000000000000000000 ) ) ;
#165 = PERSON_AND_ORGANIZATION ( #11, #89 ) ;
#166 = DATE_AND_TIME ( #148, #100 ) ;
#167 = VECTOR ( 'NONE', #172, 1000.000000000000000 ) ;
#168 = VERTEX_POINT ( 'NONE', #171 ) ;
#169 = ORIENTED_EDGE ( 'NONE', *, *, #198, .T. ) ;
#170 = LINE ( 'NONE', #21, #167 ) ;
#171 = CARTESIAN_POINT ( 'NONE',  ( 37.50000000000000000, -37.50000000000000000, 4.000000000000000000 ) ) ;
#172 = DIRECTION ( 'NONE',  ( -1.000000000000000000, -0.0000000000000000000, -0.0000000000000000000 ) ) ;
#173 = EDGE_CURVE ( 'NONE', #168, #51, #213, .T. ) ;
#174 = DIRECTION ( 'NONE',  ( -0.0000000000000000000, 0.0000000000000000000, 1.000000000000000000 ) ) ;
#175 = VECTOR ( 'NONE', #218, 1000.000000000000000 ) ;
#176 = VERTEX_POINT ( 'NONE', #223 ) ;
#177 = DATE_TIME_ROLE ( 'creation_date' ) ;
#178 = ORIENTED_EDGE ( 'NONE', *, *, #194, .F. ) ;
#179 = COORDINATED_UNIVERSAL_TIME_OFFSET ( 5, 0, .BEHIND. ) ;
#180 = LOCAL_TIME ( 13, 22, 12.00000000000000000, #179 ) ;
#181 = VERTEX_POINT ( 'NONE', #73 ) ;
#182 = EDGE_CURVE ( 'NONE', #23, #187, #64, .T. ) ;
#183 = FACE_OUTER_BOUND ( 'NONE', #41, .T. ) ;
#184 = DIRECTION ( 'NONE',  ( -0.0000000000000000000, 0.0000000000000000000, 1.000000000000000000 ) ) ;
#185 = EDGE_CURVE ( 'NONE', #176, #23, #150, .T. ) ;
#186 = SHAPE_DEFINITION_REPRESENTATION ( #196, #131 ) ;
#187 = VERTEX_POINT ( 'NONE', #233 ) ;
#188 = PLANE ( 'NONE',  #116 ) ;
#189 = DIRECTION ( 'NONE',  ( 0.0000000000000000000, -1.000000000000000000, 0.0000000000000000000 ) ) ;
#190 = PERSON_AND_ORGANIZATION ( #11, #89 ) ;
#191 = DATE_TIME_ROLE ( 'classification_date' ) ;
#192 = VECTOR ( 'NONE', #43, 1000.000000000000000 ) ;
#193 = APPROVAL_STATUS ( 'not_yet_approved' ) ;
#194 = EDGE_CURVE ( 'NONE', #25, #168, #237, .T. ) ;
#195 = PERSON_AND_ORGANIZATION ( #11, #89 ) ;
#196 = PRODUCT_DEFINITION_SHAPE ( 'NONE', 'NONE',  #71 ) ;
#197 = PERSON_AND_ORGANIZATION ( #11, #89 ) ;
#198 = EDGE_CURVE ( 'NONE', #168, #176, #159, .T. ) ;
#199 = PERSON_AND_ORGANIZATION ( #11, #89 ) ;
#200 = DATE_AND_TIME ( #68, #38 ) ;
#201 = EDGE_CURVE ( 'NONE', #51, #23, #236, .T. ) ;
#202 = VECTOR ( 'NONE', #138, 1000.000000000000000 ) ;
#203 = CARTESIAN_POINT ( 'NONE',  ( -37.50000000000000000, -37.50000000000000000, 0.0000000000000000000 ) ) ;
#204 = DIRECTION ( 'NONE',  ( 1.000000000000000000, 0.0000000000000000000, 0.0000000000000000000 ) ) ;
#205 = DIRECTION ( 'NONE',  ( -0.0000000000000000000, 0.0000000000000000000, -1.000000000000000000 ) ) ;
#206 = ORIENTED_EDGE ( 'NONE', *, *, #201, .F. ) ;
#207 = CARTESIAN_POINT ( 'NONE',  ( -37.50000000000000000, 37.50000000000000000, 4.000000000000000000 ) ) ;
#208 = DIRECTION ( 'NONE',  ( 0.0000000000000000000, 0.0000000000000000000, 1.000000000000000000 ) ) ;
#209 = APPROVAL_ROLE ( '' ) ;
#210 = LOCAL_TIME ( 13, 22, 12.00000000000000000, #109 ) ;
#211 = ORIENTED_EDGE ( 'NONE', *, *, #185, .T. ) ;
#212 =( LENGTH_UNIT ( ) NAMED_UNIT ( * ) SI_UNIT ( .MILLI., .METRE. ) );
#213 = LINE ( 'NONE', #22, #139 ) ;
#214 = AXIS2_PLACEMENT_3D ( 'NONE', #52, #184, #134 ) ;
#215 = UNCERTAINTY_MEASURE_WITH_UNIT (LENGTH_MEASURE( 1.000000000000000100E-005 ), #212, 'distance_accuracy_value', 'NONE');
#216 = LINE ( 'NONE', #203, #50 ) ;
#217 = EDGE_LOOP ( 'NONE', ( #146, #142, #34, #76 ) ) ;
#218 = DIRECTION ( 'NONE',  ( -0.0000000000000000000, -0.0000000000000000000, -1.000000000000000000 ) ) ;
#219 = PLANE ( 'NONE',  #67 ) ;
#220 = LINE ( 'NONE', #207, #125 ) ;
#221 = DIRECTION ( 'NONE',  ( 0.0000000000000000000, 1.000000000000000000, 0.0000000000000000000 ) ) ;
#222 = CARTESIAN_POINT ( 'NONE',  ( -37.50000000000000000, 37.50000000000000000, 4.000000000000000000 ) ) ;
#223 = CARTESIAN_POINT ( 'NONE',  ( 37.50000000000000000, -37.50000000000000000, 0.0000000000000000000 ) ) ;
#224 = ADVANCED_FACE ( 'NONE', ( #83 ), #144, .F. ) ;
#225 =( NAMED_UNIT ( * ) SI_UNIT ( $, .STERADIAN. ) SOLID_ANGLE_UNIT ( ) );
#226 = DIRECTION ( 'NONE',  ( -0.0000000000000000000, 1.000000000000000000, -0.0000000000000000000 ) ) ;
#227 = APPLICATION_CONTEXT ( 'configuration controlled 3d designs of mechanical parts and assemblies' ) ;
#228 = CARTESIAN_POINT ( 'NONE',  ( 37.50000000000000000, -37.50000000000000000, 4.000000000000000000 ) ) ;
#229 = PERSON_AND_ORGANIZATION ( #11, #89 ) ;
#230 = ORIENTED_EDGE ( 'NONE', *, *, #194, .T. ) ;
#231 = AXIS2_PLACEMENT_3D ( 'NONE', #62, #164, #208 ) ;
#232 = COORDINATED_UNIVERSAL_TIME_OFFSET ( 5, 0, .BEHIND. ) ;
#233 = CARTESIAN_POINT ( 'NONE',  ( -37.50000000000000000, 37.50000000000000000, 0.0000000000000000000 ) ) ;
#234 = ORIENTED_EDGE ( 'NONE', *, *, #173, .F. ) ;
#235 = PERSON_AND_ORGANIZATION ( #11, #89 ) ;
#236 = LINE ( 'NONE', #45, #31 ) ;
#237 = LINE ( 'NONE', #162, #192 ) ;
ENDSEC;
END-ISO-10303-21;
