ISO-10303-21;
HEADER;
FILE_DESCRIPTION (( 'STEP AP203' ),
    '1' );
FILE_NAME ('36252C_36579.step',
    '2017-07-20T12:40:41',
    ( '' ),
    ( '' ),
    'SwSTEP 2.0',
    'SolidWorks 2016',
    '' );
FILE_SCHEMA (( 'CONFIG_CONTROL_DESIGN' ));
ENDSEC;

DATA;
#1 = EDGE_CURVE ( 'NONE', #89, #127, #93, .T. ) ;
#2 = ORIENTED_EDGE ( 'NONE', *, *, #174, .F. ) ;
#3 = CARTESIAN_POINT ( 'NONE',  ( 6.250000000000000000, 7.654042494670957600E-016, 0.5000000000000000000 ) ) ;
#4 = DIRECTION ( 'NONE',  ( -1.000000000000000000, 0.0000000000000000000, 0.0000000000000000000 ) ) ;
#5 = CARTESIAN_POINT ( 'NONE',  ( 0.0000000000000000000, 0.0000000000000000000, 0.5000000000000000000 ) ) ;
#6 = DATE_AND_TIME ( #81, #71 ) ;
#7 = CC_DESIGN_APPROVAL ( #173, ( #164 ) ) ;
#8 = APPROVAL_STATUS ( 'not_yet_approved' ) ;
#9 = ORIENTED_EDGE ( 'NONE', *, *, #148, .F. ) ;
#10 = ORIENTED_EDGE ( 'NONE', *, *, #148, .T. ) ;
#11 = CARTESIAN_POINT ( 'NONE',  ( 0.0000000000000000000, 0.0000000000000000000, 0.0000000000000000000 ) ) ;
#12 = ADVANCED_FACE ( 'NONE', ( #163 ), #120, .T. ) ;
#13 = CC_DESIGN_PERSON_AND_ORGANIZATION_ASSIGNMENT ( #115, #67, ( #164 ) ) ;
#14 = COORDINATED_UNIVERSAL_TIME_OFFSET ( 5, 0, .BEHIND. ) ;
#15 = EDGE_CURVE ( 'NONE', #35, #23, #50, .T. ) ;
#16 = ORIENTED_EDGE ( 'NONE', *, *, #141, .T. ) ;
#17 = DIRECTION ( 'NONE',  ( -0.0000000000000000000, -0.0000000000000000000, -1.000000000000000000 ) ) ;
#18 = DIRECTION ( 'NONE',  ( 1.000000000000000000, 0.0000000000000000000, 0.0000000000000000000 ) ) ;
#19 = EDGE_LOOP ( 'NONE', ( #9, #86, #16, #118 ) ) ;
#20 = PRODUCT ( '36252C_36579', '36252C_36579', '', ( #169 ) ) ;
#21 = FACE_OUTER_BOUND ( 'NONE', #19, .T. ) ;
#22 = CC_DESIGN_DATE_AND_TIME_ASSIGNMENT ( #129, #54, ( #164 ) ) ;
#23 = VERTEX_POINT ( 'NONE', #157 ) ;
#24 = ADVANCED_FACE ( 'NONE', ( #21 ), #109, .T. ) ;
#25 = DIRECTION ( 'NONE',  ( 1.000000000000000000, 0.0000000000000000000, 0.0000000000000000000 ) ) ;
#26 = UNCERTAINTY_MEASURE_WITH_UNIT (LENGTH_MEASURE( 1.000000000000000100E-005 ), #59, 'distance_accuracy_value', 'NONE');
#27 = CARTESIAN_POINT ( 'NONE',  ( -6.250000000000000000, 0.0000000000000000000, -0.5000000000000000000 ) ) ;
#28 = DIRECTION ( 'NONE',  ( 1.000000000000000000, 0.0000000000000000000, -0.0000000000000000000 ) ) ;
#29 = PRODUCT_DEFINITION_FORMATION_WITH_SPECIFIED_SOURCE ( 'ANY', '', #20, .NOT_KNOWN. ) ;
#30 = APPROVAL_PERSON_ORGANIZATION ( #72, #173, #69 ) ;
#31 = LOCAL_TIME ( 8, 40, 41.00000000000000000, #62 ) ;
#32 = CARTESIAN_POINT ( 'NONE',  ( 0.0000000000000000000, 0.0000000000000000000, 0.5000000000000000000 ) ) ;
#33 = VECTOR ( 'NONE', #44, 1000.000000000000000 ) ;
#34 = AXIS2_PLACEMENT_3D ( 'NONE', #5, #17, #149 ) ;
#35 = VERTEX_POINT ( 'NONE', #121 ) ;
#36 = APPLICATION_CONTEXT ( 'configuration controlled 3d designs of mechanical parts and assemblies' ) ;
#37 = DIRECTION ( 'NONE',  ( 0.0000000000000000000, 0.0000000000000000000, 1.000000000000000000 ) ) ;
#38 = VECTOR ( 'NONE', #91, 1000.000000000000000 ) ;
#39 = APPROVAL ( #8, 'UNSPECIFIED' ) ;
#40 = PERSON_AND_ORGANIZATION ( #159, #123 ) ;
#41 = DIRECTION ( 'NONE',  ( 1.000000000000000000, 0.0000000000000000000, 0.0000000000000000000 ) ) ;
#42 = LOCAL_TIME ( 8, 40, 41.00000000000000000, #14 ) ;
#43 = LINE ( 'NONE', #3, #33 ) ;
#44 = DIRECTION ( 'NONE',  ( -0.0000000000000000000, -0.0000000000000000000, -1.000000000000000000 ) ) ;
#45 = EDGE_LOOP ( 'NONE', ( #147, #10, #64, #168 ) ) ;
#46 = CC_DESIGN_APPROVAL ( #39, ( #29 ) ) ;
#47 = DIRECTION ( 'NONE',  ( -0.0000000000000000000, -0.0000000000000000000, -1.000000000000000000 ) ) ;
#48 = DIRECTION ( 'NONE',  ( 0.0000000000000000000, 0.0000000000000000000, 1.000000000000000000 ) ) ;
#49 = AXIS2_PLACEMENT_3D ( 'NONE', #95, #47, #4 ) ;
#50 = CIRCLE ( 'NONE', #102, 6.250000000000000000 ) ;
#51 = CARTESIAN_POINT ( 'NONE',  ( 0.0000000000000000000, 0.0000000000000000000, -0.5000000000000000000 ) ) ;
#52 = APPLICATION_PROTOCOL_DEFINITION ( 'international standard', 'config_control_design', 1994, #135 ) ;
#53 = DIRECTION ( 'NONE',  ( 0.0000000000000000000, 0.0000000000000000000, 1.000000000000000000 ) ) ;
#54 = DATE_TIME_ROLE ( 'creation_date' ) ;
#55 = PERSON_AND_ORGANIZATION ( #159, #123 ) ;
#56 = DIRECTION ( 'NONE',  ( 0.0000000000000000000, 0.0000000000000000000, 1.000000000000000000 ) ) ;
#57 = CC_DESIGN_PERSON_AND_ORGANIZATION_ASSIGNMENT ( #112, #98, ( #29 ) ) ;
#58 = CALENDAR_DATE ( 2017, 20, 7 ) ;
#59 =( LENGTH_UNIT ( ) NAMED_UNIT ( * ) SI_UNIT ( .MILLI., .METRE. ) );
#60 = DIRECTION ( 'NONE',  ( 1.000000000000000000, 0.0000000000000000000, -0.0000000000000000000 ) ) ;
#61 = AXIS2_PLACEMENT_3D ( 'NONE', #92, #104, #41 ) ;
#62 = COORDINATED_UNIVERSAL_TIME_OFFSET ( 5, 0, .BEHIND. ) ;
#63 = LINE ( 'NONE', #132, #38 ) ;
#64 = ORIENTED_EDGE ( 'NONE', *, *, #174, .T. ) ;
#65 = DATE_AND_TIME ( #162, #42 ) ;
#66 = ORIENTED_EDGE ( 'NONE', *, *, #15, .T. ) ;
#67 = PERSON_AND_ORGANIZATION_ROLE ( 'creator' ) ;
#68 = CC_DESIGN_PERSON_AND_ORGANIZATION_ASSIGNMENT ( #85, #175, ( #29 ) ) ;
#69 = APPROVAL_ROLE ( '' ) ;
#70 = DESIGN_CONTEXT ( 'detailed design', #36, 'design' ) ;
#71 = LOCAL_TIME ( 8, 40, 41.00000000000000000, #83 ) ;
#72 = PERSON_AND_ORGANIZATION ( #159, #123 ) ;
#73 = PRODUCT_DEFINITION_SHAPE ( 'NONE', 'NONE',  #164 ) ;
#74 = AXIS2_PLACEMENT_3D ( 'NONE', #143, #145, #28 ) ;
#75 = EDGE_LOOP ( 'NONE', ( #66, #126 ) ) ;
#76 = APPROVAL_STATUS ( 'not_yet_approved' ) ;
#77 = COORDINATED_UNIVERSAL_TIME_OFFSET ( 5, 0, .BEHIND. ) ;
#78 = CARTESIAN_POINT ( 'NONE',  ( 6.250000000000000000, 7.654042494670957600E-016, -0.5000000000000000000 ) ) ;
#79 = APPLICATION_PROTOCOL_DEFINITION ( 'international standard', 'config_control_design', 1994, #36 ) ;
#80 = SECURITY_CLASSIFICATION ( '', '', #167 ) ;
#81 = CALENDAR_DATE ( 2017, 20, 7 ) ;
#82 = ADVANCED_FACE ( 'NONE', ( #113 ), #172, .F. ) ;
#83 = COORDINATED_UNIVERSAL_TIME_OFFSET ( 5, 0, .BEHIND. ) ;
#84 =( NAMED_UNIT ( * ) SI_UNIT ( $, .STERADIAN. ) SOLID_ANGLE_UNIT ( ) );
#85 = PERSON_AND_ORGANIZATION ( #159, #123 ) ;
#86 = ORIENTED_EDGE ( 'NONE', *, *, #15, .F. ) ;
#87 = APPROVAL_PERSON_ORGANIZATION ( #117, #39, #99 ) ;
#88 = CC_DESIGN_PERSON_AND_ORGANIZATION_ASSIGNMENT ( #170, #166, ( #80 ) ) ;
#89 = VERTEX_POINT ( 'NONE', #27 ) ;
#90 = AXIS2_PLACEMENT_3D ( 'NONE', #51, #37, #131 ) ;
#91 = DIRECTION ( 'NONE',  ( -0.0000000000000000000, -0.0000000000000000000, -1.000000000000000000 ) ) ;
#92 = CARTESIAN_POINT ( 'NONE',  ( 0.0000000000000000000, 0.0000000000000000000, 0.5000000000000000000 ) ) ;
#93 = CIRCLE ( 'NONE', #110, 6.250000000000000000 ) ;
#94 = PERSON_AND_ORGANIZATION_ROLE ( 'design_owner' ) ;
#95 = CARTESIAN_POINT ( 'NONE',  ( 0.0000000000000000000, 0.0000000000000000000, 0.5000000000000000000 ) ) ;
#96 = CC_DESIGN_DATE_AND_TIME_ASSIGNMENT ( #65, #161, ( #80 ) ) ;
#97 = APPROVAL_DATE_TIME ( #6, #173 ) ;
#98 = PERSON_AND_ORGANIZATION_ROLE ( 'creator' ) ;
#99 = APPROVAL_ROLE ( '' ) ;
#100 = AXIS2_PLACEMENT_3D ( 'NONE', #32, #48, #60 ) ;
#101 = EDGE_CURVE ( 'NONE', #23, #35, #154, .T. ) ;
#102 = AXIS2_PLACEMENT_3D ( 'NONE', #156, #56, #25 ) ;
#103 = APPROVAL ( #155, 'UNSPECIFIED' ) ;
#104 = DIRECTION ( 'NONE',  ( 0.0000000000000000000, 0.0000000000000000000, 1.000000000000000000 ) ) ;
#105 =( GEOMETRIC_REPRESENTATION_CONTEXT ( 3 ) GLOBAL_UNCERTAINTY_ASSIGNED_CONTEXT ( ( #26 ) ) GLOBAL_UNIT_ASSIGNED_CONTEXT ( ( #59, #158, #84 ) ) REPRESENTATION_CONTEXT ( 'NONE', 'WORKASPACE' ) );
#106 = COORDINATED_UNIVERSAL_TIME_OFFSET ( 5, 0, .BEHIND. ) ;
#107 = FACE_OUTER_BOUND ( 'NONE', #75, .T. ) ;
#108 = CC_DESIGN_APPROVAL ( #103, ( #80 ) ) ;
#109 = CYLINDRICAL_SURFACE ( 'NONE', #49, 6.250000000000000000 ) ;
#110 = AXIS2_PLACEMENT_3D ( 'NONE', #125, #53, #18 ) ;
#111 = DATE_AND_TIME ( #58, #31 ) ;
#112 = PERSON_AND_ORGANIZATION ( #159, #123 ) ;
#113 = FACE_OUTER_BOUND ( 'NONE', #165, .T. ) ;
#114 = CIRCLE ( 'NONE', #90, 6.250000000000000000 ) ;
#115 = PERSON_AND_ORGANIZATION ( #159, #123 ) ;
#116 = CC_DESIGN_SECURITY_CLASSIFICATION ( #80, ( #29 ) ) ;
#117 = PERSON_AND_ORGANIZATION ( #159, #123 ) ;
#118 = ORIENTED_EDGE ( 'NONE', *, *, #1, .T. ) ;
#119 = MANIFOLD_SOLID_BREP ( 'Boss-Extrude1', #146 ) ;
#120 = CYLINDRICAL_SURFACE ( 'NONE', #34, 6.250000000000000000 ) ;
#121 = CARTESIAN_POINT ( 'NONE',  ( -6.250000000000000000, 0.0000000000000000000, 0.5000000000000000000 ) ) ;
#122 = DIRECTION ( 'NONE',  ( 1.000000000000000000, 0.0000000000000000000, 0.0000000000000000000 ) ) ;
#123 = ORGANIZATION ( 'UNSPECIFIED', 'UNSPECIFIED', '' ) ;
#124 = PRODUCT_RELATED_PRODUCT_CATEGORY ( 'detail', '', ( #20 ) ) ;
#125 = CARTESIAN_POINT ( 'NONE',  ( 0.0000000000000000000, 0.0000000000000000000, -0.5000000000000000000 ) ) ;
#126 = ORIENTED_EDGE ( 'NONE', *, *, #101, .T. ) ;
#127 = VERTEX_POINT ( 'NONE', #78 ) ;
#128 = ADVANCED_FACE ( 'NONE', ( #107 ), #136, .T. ) ;
#129 = DATE_AND_TIME ( #130, #134 ) ;
#130 = CALENDAR_DATE ( 2017, 20, 7 ) ;
#131 = DIRECTION ( 'NONE',  ( 1.000000000000000000, 0.0000000000000000000, 0.0000000000000000000 ) ) ;
#132 = CARTESIAN_POINT ( 'NONE',  ( -6.250000000000000000, 0.0000000000000000000, 0.5000000000000000000 ) ) ;
#133 = ADVANCED_BREP_SHAPE_REPRESENTATION ( '36252C_36579', ( #119, #138 ), #105 ) ;
#134 = LOCAL_TIME ( 8, 40, 41.00000000000000000, #77 ) ;
#135 = APPLICATION_CONTEXT ( 'configuration controlled 3d designs of mechanical parts and assemblies' ) ;
#136 = PLANE ( 'NONE',  #100 ) ;
#137 = LOCAL_TIME ( 8, 40, 41.00000000000000000, #106 ) ;
#138 = AXIS2_PLACEMENT_3D ( 'NONE', #11, #171, #122 ) ;
#139 = APPROVAL_DATE_TIME ( #142, #39 ) ;
#140 = APPROVAL_PERSON_ORGANIZATION ( #55, #103, #153 ) ;
#141 = EDGE_CURVE ( 'NONE', #35, #89, #63, .T. ) ;
#142 = DATE_AND_TIME ( #150, #137 ) ;
#143 = CARTESIAN_POINT ( 'NONE',  ( 0.0000000000000000000, 0.0000000000000000000, -0.5000000000000000000 ) ) ;
#144 = SHAPE_DEFINITION_REPRESENTATION ( #73, #133 ) ;
#145 = DIRECTION ( 'NONE',  ( 0.0000000000000000000, 0.0000000000000000000, 1.000000000000000000 ) ) ;
#146 = CLOSED_SHELL ( 'NONE', ( #12, #24, #128, #82 ) ) ;
#147 = ORIENTED_EDGE ( 'NONE', *, *, #101, .F. ) ;
#148 = EDGE_CURVE ( 'NONE', #23, #127, #43, .T. ) ;
#149 = DIRECTION ( 'NONE',  ( -1.000000000000000000, 0.0000000000000000000, 0.0000000000000000000 ) ) ;
#150 = CALENDAR_DATE ( 2017, 20, 7 ) ;
#151 = CC_DESIGN_PERSON_AND_ORGANIZATION_ASSIGNMENT ( #40, #94, ( #20 ) ) ;
#152 = ORIENTED_EDGE ( 'NONE', *, *, #1, .F. ) ;
#153 = APPROVAL_ROLE ( '' ) ;
#154 = CIRCLE ( 'NONE', #61, 6.250000000000000000 ) ;
#155 = APPROVAL_STATUS ( 'not_yet_approved' ) ;
#156 = CARTESIAN_POINT ( 'NONE',  ( 0.0000000000000000000, 0.0000000000000000000, 0.5000000000000000000 ) ) ;
#157 = CARTESIAN_POINT ( 'NONE',  ( 6.250000000000000000, 7.654042494670957600E-016, 0.5000000000000000000 ) ) ;
#158 =( NAMED_UNIT ( * ) PLANE_ANGLE_UNIT ( ) SI_UNIT ( $, .RADIAN. ) );
#159 = PERSON ( 'UNSPECIFIED', 'UNSPECIFIED', 'UNSPECIFIED', ('UNSPECIFIED'), ('UNSPECIFIED'), ('UNSPECIFIED') ) ;
#160 = APPROVAL_DATE_TIME ( #111, #103 ) ;
#161 = DATE_TIME_ROLE ( 'classification_date' ) ;
#162 = CALENDAR_DATE ( 2017, 20, 7 ) ;
#163 = FACE_OUTER_BOUND ( 'NONE', #45, .T. ) ;
#164 = PRODUCT_DEFINITION ( 'UNKNOWN', '', #29, #70 ) ;
#165 = EDGE_LOOP ( 'NONE', ( #152, #2 ) ) ;
#166 = PERSON_AND_ORGANIZATION_ROLE ( 'classification_officer' ) ;
#167 = SECURITY_CLASSIFICATION_LEVEL ( 'unclassified' ) ;
#168 = ORIENTED_EDGE ( 'NONE', *, *, #141, .F. ) ;
#169 = MECHANICAL_CONTEXT ( 'NONE', #135, 'mechanical' ) ;
#170 = PERSON_AND_ORGANIZATION ( #159, #123 ) ;
#171 = DIRECTION ( 'NONE',  ( 0.0000000000000000000, 0.0000000000000000000, 1.000000000000000000 ) ) ;
#172 = PLANE ( 'NONE',  #74 ) ;
#173 = APPROVAL ( #76, 'UNSPECIFIED' ) ;
#174 = EDGE_CURVE ( 'NONE', #127, #89, #114, .T. ) ;
#175 = PERSON_AND_ORGANIZATION_ROLE ( 'design_supplier' ) ;
ENDSEC;
END-ISO-10303-21;
