ISO-10303-21;
HEADER;
FILE_DESCRIPTION (( 'STEP AP203' ),
    '1' );
FILE_NAME ('Web Model 17219_17219.step',
    '2021-04-08T13:28:39',
    ( '' ),
    ( '' ),
    'SwSTEP 2.0',
    'SolidWorks 2018',
    '' );
FILE_SCHEMA (( 'CONFIG_CONTROL_DESIGN' ));
ENDSEC;

DATA;
#1 = AXIS2_PLACEMENT_3D ( 'NONE', #121, #169, #37 ) ;
#2 = COORDINATED_UNIVERSAL_TIME_OFFSET ( 5, 0, .BEHIND. ) ;
#3 = AXIS2_PLACEMENT_3D ( 'NONE', #17, #4, #152 ) ;
#4 = DIRECTION ( 'NONE',  ( 0.000000000000000000, 0.000000000000000000, 1.000000000000000000 ) ) ;
#5 =( LENGTH_UNIT ( ) NAMED_UNIT ( * ) SI_UNIT ( .MILLI., .METRE. ) );
#6 = COORDINATED_UNIVERSAL_TIME_OFFSET ( 5, 0, .BEHIND. ) ;
#7 = APPLICATION_PROTOCOL_DEFINITION ( 'international standard', 'config_control_design', 1994, #18 ) ;
#8 = APPROVAL_STATUS ( 'not_yet_approved' ) ;
#9 = AXIS2_PLACEMENT_3D ( 'NONE', #119, #127, #103 ) ;
#10 = CIRCLE ( 'NONE', #1, 3.174999999999999822 ) ;
#11 = COORDINATED_UNIVERSAL_TIME_OFFSET ( 5, 0, .BEHIND. ) ;
#12 = EDGE_LOOP ( 'NONE', ( #134, #140 ) ) ;
#13 = EDGE_LOOP ( 'NONE', ( #113, #164 ) ) ;
#14 = CARTESIAN_POINT ( 'NONE',  ( 0.000000000000000000, 0.000000000000000000, 1.000000000000000000 ) ) ;
#15 = PRODUCT_DEFINITION ( 'UNKNOWN', '', #57, #91 ) ;
#16 = PERSON_AND_ORGANIZATION ( #22, #111 ) ;
#17 = CARTESIAN_POINT ( 'NONE',  ( 0.000000000000000000, 0.000000000000000000, 0.000000000000000000 ) ) ;
#18 = APPLICATION_CONTEXT ( 'configuration controlled 3d designs of mechanical parts and assemblies' ) ;
#19 = PERSON_AND_ORGANIZATION ( #22, #111 ) ;
#20 = ORIENTED_EDGE ( 'NONE', *, *, #105, .F. ) ;
#21 = DIRECTION ( 'NONE',  ( -0.000000000000000000, -0.000000000000000000, -1.000000000000000000 ) ) ;
#22 = PERSON ( 'UNSPECIFIED', 'UNSPECIFIED', 'UNSPECIFIED', ('UNSPECIFIED'), ('UNSPECIFIED'), ('UNSPECIFIED') ) ;
#23 = CARTESIAN_POINT ( 'NONE',  ( 0.000000000000000000, 0.000000000000000000, 0.000000000000000000 ) ) ;
#24 = CARTESIAN_POINT ( 'NONE',  ( 3.174999999999999822, 3.888253587292846081E-16, 1.000000000000000000 ) ) ;
#25 = AXIS2_PLACEMENT_3D ( 'NONE', #137, #51, #64 ) ;
#26 = DATE_AND_TIME ( #114, #147 ) ;
#27 = PERSON_AND_ORGANIZATION ( #22, #111 ) ;
#28 = ADVANCED_FACE ( 'NONE', ( #87 ), #79, .F. ) ;
#29 = LOCAL_TIME ( 9, 28, 39.00000000000000000, #55 ) ;
#30 = PERSON_AND_ORGANIZATION_ROLE ( 'creator' ) ;
#31 = ADVANCED_FACE ( 'NONE', ( #96 ), #47, .T. ) ;
#32 = DATE_TIME_ROLE ( 'classification_date' ) ;
#33 = APPROVAL_DATE_TIME ( #75, #83 ) ;
#34 = VERTEX_POINT ( 'NONE', #78 ) ;
#35 = DATE_AND_TIME ( #133, #108 ) ;
#36 = VECTOR ( 'NONE', #21, 1000.000000000000000 ) ;
#37 = DIRECTION ( 'NONE',  ( 1.000000000000000000, 0.000000000000000000, 0.000000000000000000 ) ) ;
#38 = PRODUCT ( 'Web Model 17219_17219', 'Web Model 17219_17219', '', ( #117 ) ) ;
#39 = AXIS2_PLACEMENT_3D ( 'NONE', #148, #92, #158 ) ;
#40 = CALENDAR_DATE ( 2021, 8, 4 ) ;
#41 = CC_DESIGN_DATE_AND_TIME_ASSIGNMENT ( #35, #166, ( #15 ) ) ;
#42 = EDGE_CURVE ( 'NONE', #104, #34, #10, .T. ) ;
#43 = VECTOR ( 'NONE', #44, 1000.000000000000000 ) ;
#44 = DIRECTION ( 'NONE',  ( -0.000000000000000000, -0.000000000000000000, -1.000000000000000000 ) ) ;
#45 = VERTEX_POINT ( 'NONE', #155 ) ;
#46 = EDGE_CURVE ( 'NONE', #45, #34, #48, .T. ) ;
#47 = PLANE ( 'NONE',  #122 ) ;
#48 = LINE ( 'NONE', #24, #36 ) ;
#49 = DIRECTION ( 'NONE',  ( 0.000000000000000000, 0.000000000000000000, 1.000000000000000000 ) ) ;
#50 = EDGE_CURVE ( 'NONE', #45, #139, #90, .T. ) ;
#51 = DIRECTION ( 'NONE',  ( -0.000000000000000000, -0.000000000000000000, -1.000000000000000000 ) ) ;
#52 = CYLINDRICAL_SURFACE ( 'NONE', #156, 3.174999999999999822 ) ;
#53 = CARTESIAN_POINT ( 'NONE',  ( -3.174999999999999822, 0.000000000000000000, 1.000000000000000000 ) ) ;
#54 =( NAMED_UNIT ( * ) PLANE_ANGLE_UNIT ( ) SI_UNIT ( $, .RADIAN. ) );
#55 = COORDINATED_UNIVERSAL_TIME_OFFSET ( 5, 0, .BEHIND. ) ;
#56 = ORIENTED_EDGE ( 'NONE', *, *, #42, .T. ) ;
#57 = PRODUCT_DEFINITION_FORMATION_WITH_SPECIFIED_SOURCE ( 'ANY', '', #38, .NOT_KNOWN. ) ;
#58 = PRODUCT_DEFINITION_SHAPE ( 'NONE', 'NONE',  #15 ) ;
#59 = AXIS2_PLACEMENT_3D ( 'NONE', #23, #49, #170 ) ;
#60 = SHAPE_DEFINITION_REPRESENTATION ( #58, #145 ) ;
#61 = CLOSED_SHELL ( 'NONE', ( #116, #132, #31, #28 ) ) ;
#62 = CIRCLE ( 'NONE', #3, 3.174999999999999822 ) ;
#63 = DIRECTION ( 'NONE',  ( -0.000000000000000000, -0.000000000000000000, -1.000000000000000000 ) ) ;
#64 = DIRECTION ( 'NONE',  ( -1.000000000000000000, 0.000000000000000000, 0.000000000000000000 ) ) ;
#65 = PERSON_AND_ORGANIZATION ( #22, #111 ) ;
#66 = APPROVAL ( #130, 'UNSPECIFIED' ) ;
#67 = AXIS2_PLACEMENT_3D ( 'NONE', #173, #146, #124 ) ;
#68 = PERSON_AND_ORGANIZATION ( #22, #111 ) ;
#69 = SECURITY_CLASSIFICATION ( '', '', #128 ) ;
#70 = CC_DESIGN_PERSON_AND_ORGANIZATION_ASSIGNMENT ( #93, #72, ( #38 ) ) ;
#71 = APPROVAL_DATE_TIME ( #26, #76 ) ;
#72 = PERSON_AND_ORGANIZATION_ROLE ( 'design_owner' ) ;
#73 = APPROVAL_ROLE ( '' ) ;
#74 = CARTESIAN_POINT ( 'NONE',  ( -3.174999999999999822, 0.000000000000000000, 1.000000000000000000 ) ) ;
#75 = DATE_AND_TIME ( #112, #144 ) ;
#76 = APPROVAL ( #98, 'UNSPECIFIED' ) ;
#77 = CIRCLE ( 'NONE', #67, 3.174999999999999822 ) ;
#78 = CARTESIAN_POINT ( 'NONE',  ( 3.174999999999999822, 3.888253587292846081E-16, 0.000000000000000000 ) ) ;
#79 = PLANE ( 'NONE',  #59 ) ;
#80 = PRODUCT_RELATED_PRODUCT_CATEGORY ( 'detail', '', ( #38 ) ) ;
#81 = CARTESIAN_POINT ( 'NONE',  ( 0.000000000000000000, 0.000000000000000000, 1.000000000000000000 ) ) ;
#82 = ORIENTED_EDGE ( 'NONE', *, *, #159, .T. ) ;
#83 = APPROVAL ( #8, 'UNSPECIFIED' ) ;
#84 = CC_DESIGN_PERSON_AND_ORGANIZATION_ASSIGNMENT ( #85, #165, ( #15 ) ) ;
#85 = PERSON_AND_ORGANIZATION ( #22, #111 ) ;
#86 =( NAMED_UNIT ( * ) SI_UNIT ( $, .STERADIAN. ) SOLID_ANGLE_UNIT ( ) );
#87 = FACE_OUTER_BOUND ( 'NONE', #13, .T. ) ;
#88 =( GEOMETRIC_REPRESENTATION_CONTEXT ( 3 ) GLOBAL_UNCERTAINTY_ASSIGNED_CONTEXT ( ( #123 ) ) GLOBAL_UNIT_ASSIGNED_CONTEXT ( ( #5, #54, #86 ) ) REPRESENTATION_CONTEXT ( 'NONE', 'WORKASPACE' ) );
#89 = CC_DESIGN_APPROVAL ( #76, ( #15 ) ) ;
#90 = CIRCLE ( 'NONE', #39, 3.174999999999999822 ) ;
#91 = DESIGN_CONTEXT ( 'detailed design', #150, 'design' ) ;
#92 = DIRECTION ( 'NONE',  ( 0.000000000000000000, 0.000000000000000000, 1.000000000000000000 ) ) ;
#93 = PERSON_AND_ORGANIZATION ( #22, #111 ) ;
#94 = EDGE_LOOP ( 'NONE', ( #143, #20, #82, #56 ) ) ;
#95 = CC_DESIGN_DATE_AND_TIME_ASSIGNMENT ( #138, #32, ( #69 ) ) ;
#96 = FACE_OUTER_BOUND ( 'NONE', #12, .T. ) ;
#97 = EDGE_LOOP ( 'NONE', ( #175, #168, #161, #120 ) ) ;
#98 = APPROVAL_STATUS ( 'not_yet_approved' ) ;
#99 = APPROVAL_ROLE ( '' ) ;
#100 = PERSON_AND_ORGANIZATION_ROLE ( 'classification_officer' ) ;
#101 = CC_DESIGN_SECURITY_CLASSIFICATION ( #69, ( #57 ) ) ;
#102 = LOCAL_TIME ( 9, 28, 39.00000000000000000, #141 ) ;
#103 = DIRECTION ( 'NONE',  ( 1.000000000000000000, 0.000000000000000000, 0.000000000000000000 ) ) ;
#104 = VERTEX_POINT ( 'NONE', #110 ) ;
#105 = EDGE_CURVE ( 'NONE', #139, #45, #77, .T. ) ;
#106 = DATE_AND_TIME ( #40, #102 ) ;
#107 = CC_DESIGN_PERSON_AND_ORGANIZATION_ASSIGNMENT ( #68, #115, ( #57 ) ) ;
#108 = LOCAL_TIME ( 9, 28, 39.00000000000000000, #2 ) ;
#109 = CC_DESIGN_APPROVAL ( #66, ( #57 ) ) ;
#110 = CARTESIAN_POINT ( 'NONE',  ( -3.174999999999999822, 0.000000000000000000, 0.000000000000000000 ) ) ;
#111 = ORGANIZATION ( 'UNSPECIFIED', 'UNSPECIFIED', '' ) ;
#112 = CALENDAR_DATE ( 2021, 8, 4 ) ;
#113 = ORIENTED_EDGE ( 'NONE', *, *, #42, .F. ) ;
#114 = CALENDAR_DATE ( 2021, 8, 4 ) ;
#115 = PERSON_AND_ORGANIZATION_ROLE ( 'design_supplier' ) ;
#116 = ADVANCED_FACE ( 'NONE', ( #171 ), #52, .T. ) ;
#117 = MECHANICAL_CONTEXT ( 'NONE', #18, 'mechanical' ) ;
#118 = APPROVAL_PERSON_ORGANIZATION ( #16, #66, #131 ) ;
#119 = CARTESIAN_POINT ( 'NONE',  ( 0.000000000000000000, 0.000000000000000000, 0.000000000000000000 ) ) ;
#120 = ORIENTED_EDGE ( 'NONE', *, *, #159, .F. ) ;
#121 = CARTESIAN_POINT ( 'NONE',  ( 0.000000000000000000, 0.000000000000000000, 0.000000000000000000 ) ) ;
#122 = AXIS2_PLACEMENT_3D ( 'NONE', #81, #136, #172 ) ;
#123 = UNCERTAINTY_MEASURE_WITH_UNIT (LENGTH_MEASURE( 1.000000000000000082E-05 ), #5, 'distance_accuracy_value', 'NONE');
#124 = DIRECTION ( 'NONE',  ( 1.000000000000000000, 0.000000000000000000, 0.000000000000000000 ) ) ;
#125 = APPROVAL_PERSON_ORGANIZATION ( #163, #76, #73 ) ;
#126 = CC_DESIGN_PERSON_AND_ORGANIZATION_ASSIGNMENT ( #27, #30, ( #57 ) ) ;
#127 = DIRECTION ( 'NONE',  ( 0.000000000000000000, 0.000000000000000000, 1.000000000000000000 ) ) ;
#128 = SECURITY_CLASSIFICATION_LEVEL ( 'unclassified' ) ;
#129 = APPROVAL_PERSON_ORGANIZATION ( #19, #83, #99 ) ;
#130 = APPROVAL_STATUS ( 'not_yet_approved' ) ;
#131 = APPROVAL_ROLE ( '' ) ;
#132 = ADVANCED_FACE ( 'NONE', ( #174 ), #160, .T. ) ;
#133 = CALENDAR_DATE ( 2021, 8, 4 ) ;
#134 = ORIENTED_EDGE ( 'NONE', *, *, #105, .T. ) ;
#135 = MANIFOLD_SOLID_BREP ( 'Boss-Extrude1', #61 ) ;
#136 = DIRECTION ( 'NONE',  ( 0.000000000000000000, 0.000000000000000000, 1.000000000000000000 ) ) ;
#137 = CARTESIAN_POINT ( 'NONE',  ( 0.000000000000000000, 0.000000000000000000, 1.000000000000000000 ) ) ;
#138 = DATE_AND_TIME ( #167, #29 ) ;
#139 = VERTEX_POINT ( 'NONE', #74 ) ;
#140 = ORIENTED_EDGE ( 'NONE', *, *, #50, .T. ) ;
#141 = COORDINATED_UNIVERSAL_TIME_OFFSET ( 5, 0, .BEHIND. ) ;
#142 = CC_DESIGN_PERSON_AND_ORGANIZATION_ASSIGNMENT ( #65, #100, ( #69 ) ) ;
#143 = ORIENTED_EDGE ( 'NONE', *, *, #46, .F. ) ;
#144 = LOCAL_TIME ( 9, 28, 39.00000000000000000, #6 ) ;
#145 = ADVANCED_BREP_SHAPE_REPRESENTATION ( 'Web Model 17219_17219', ( #135, #9 ), #88 ) ;
#146 = DIRECTION ( 'NONE',  ( 0.000000000000000000, 0.000000000000000000, 1.000000000000000000 ) ) ;
#147 = LOCAL_TIME ( 9, 28, 39.00000000000000000, #11 ) ;
#148 = CARTESIAN_POINT ( 'NONE',  ( 0.000000000000000000, 0.000000000000000000, 1.000000000000000000 ) ) ;
#149 = LINE ( 'NONE', #53, #43 ) ;
#150 = APPLICATION_CONTEXT ( 'configuration controlled 3d designs of mechanical parts and assemblies' ) ;
#151 = APPROVAL_DATE_TIME ( #106, #66 ) ;
#152 = DIRECTION ( 'NONE',  ( 1.000000000000000000, 0.000000000000000000, 0.000000000000000000 ) ) ;
#153 = EDGE_CURVE ( 'NONE', #34, #104, #62, .T. ) ;
#154 = CC_DESIGN_APPROVAL ( #83, ( #69 ) ) ;
#155 = CARTESIAN_POINT ( 'NONE',  ( 3.174999999999999822, 3.888253587292846081E-16, 1.000000000000000000 ) ) ;
#156 = AXIS2_PLACEMENT_3D ( 'NONE', #14, #63, #157 ) ;
#157 = DIRECTION ( 'NONE',  ( -1.000000000000000000, 0.000000000000000000, 0.000000000000000000 ) ) ;
#158 = DIRECTION ( 'NONE',  ( 1.000000000000000000, 0.000000000000000000, 0.000000000000000000 ) ) ;
#159 = EDGE_CURVE ( 'NONE', #139, #104, #149, .T. ) ;
#160 = CYLINDRICAL_SURFACE ( 'NONE', #25, 3.174999999999999822 ) ;
#161 = ORIENTED_EDGE ( 'NONE', *, *, #153, .T. ) ;
#162 = APPLICATION_PROTOCOL_DEFINITION ( 'international standard', 'config_control_design', 1994, #150 ) ;
#163 = PERSON_AND_ORGANIZATION ( #22, #111 ) ;
#164 = ORIENTED_EDGE ( 'NONE', *, *, #153, .F. ) ;
#165 = PERSON_AND_ORGANIZATION_ROLE ( 'creator' ) ;
#166 = DATE_TIME_ROLE ( 'creation_date' ) ;
#167 = CALENDAR_DATE ( 2021, 8, 4 ) ;
#168 = ORIENTED_EDGE ( 'NONE', *, *, #46, .T. ) ;
#169 = DIRECTION ( 'NONE',  ( 0.000000000000000000, 0.000000000000000000, 1.000000000000000000 ) ) ;
#170 = DIRECTION ( 'NONE',  ( 1.000000000000000000, 0.000000000000000000, -0.000000000000000000 ) ) ;
#171 = FACE_OUTER_BOUND ( 'NONE', #97, .T. ) ;
#172 = DIRECTION ( 'NONE',  ( 1.000000000000000000, 0.000000000000000000, -0.000000000000000000 ) ) ;
#173 = CARTESIAN_POINT ( 'NONE',  ( 0.000000000000000000, 0.000000000000000000, 1.000000000000000000 ) ) ;
#174 = FACE_OUTER_BOUND ( 'NONE', #94, .T. ) ;
#175 = ORIENTED_EDGE ( 'NONE', *, *, #50, .F. ) ;
ENDSEC;
END-ISO-10303-21;
