ISO-10303-21;
HEADER;
FILE_DESCRIPTION (( 'STEP AP203' ),
    '1' );
FILE_NAME ('Web Model 84464_13352.step',
    '2020-11-04T13:58:37',
    ( '' ),
    ( '' ),
    'SwSTEP 2.0',
    'SolidWorks 2018',
    '' );
FILE_SCHEMA (( 'CONFIG_CONTROL_DESIGN' ));
ENDSEC;

DATA;
#1 = PRODUCT ( 'Web Model 84464_13352', 'Web Model 84464_13352', '', ( #42 ) ) ;
#2 = FACE_OUTER_BOUND ( 'NONE', #169, .T. ) ;
#3 = ORIENTED_EDGE ( 'NONE', *, *, #83, .T. ) ;
#4 = PLANE ( 'NONE',  #80 ) ;
#5 = LOCAL_TIME ( 8, 58, 37.00000000000000000, #151 ) ;
#6 = APPROVAL ( #41, 'UNSPECIFIED' ) ;
#7 = PERSON_AND_ORGANIZATION_ROLE ( 'design_owner' ) ;
#8 = LOCAL_TIME ( 8, 58, 37.00000000000000000, #104 ) ;
#9 = DIRECTION ( 'NONE',  ( -0.0000000000000000000, -0.0000000000000000000, -1.000000000000000000 ) ) ;
#10 = EDGE_LOOP ( 'NONE', ( #145, #101 ) ) ;
#11 = PRODUCT_DEFINITION_SHAPE ( 'NONE', 'NONE',  #19 ) ;
#12 = DIRECTION ( 'NONE',  ( 1.000000000000000000, 0.0000000000000000000, 0.0000000000000000000 ) ) ;
#13 = DIRECTION ( 'NONE',  ( -1.000000000000000000, 0.0000000000000000000, 0.0000000000000000000 ) ) ;
#14 = CIRCLE ( 'NONE', #115, 10.00000000000000178 ) ;
#15 = CC_DESIGN_APPROVAL ( #6, ( #19 ) ) ;
#16 = APPROVAL_PERSON_ORGANIZATION ( #97, #78, #133 ) ;
#17 = PERSON ( 'UNSPECIFIED', 'UNSPECIFIED', 'UNSPECIFIED', ('UNSPECIFIED'), ('UNSPECIFIED'), ('UNSPECIFIED') ) ;
#18 = EDGE_LOOP ( 'NONE', ( #127, #70, #56, #3 ) ) ;
#19 = PRODUCT_DEFINITION ( 'UNKNOWN', '', #28, #86 ) ;
#20 = CC_DESIGN_PERSON_AND_ORGANIZATION_ASSIGNMENT ( #82, #120, ( #19 ) ) ;
#21 = APPROVAL_PERSON_ORGANIZATION ( #79, #53, #38 ) ;
#22 = ORIENTED_EDGE ( 'NONE', *, *, #89, .F. ) ;
#23 = CC_DESIGN_DATE_AND_TIME_ASSIGNMENT ( #61, #39, ( #19 ) ) ;
#24 = VECTOR ( 'NONE', #88, 1000.000000000000000 ) ;
#25 = CARTESIAN_POINT ( 'NONE',  ( 10.00000000000000178, 1.224646799147353454E-15, 0.0000000000000000000 ) ) ;
#26 = CARTESIAN_POINT ( 'NONE',  ( -10.00000000000000178, 0.0000000000000000000, 0.0000000000000000000 ) ) ;
#27 =( NAMED_UNIT ( * ) SI_UNIT ( $, .STERADIAN. ) SOLID_ANGLE_UNIT ( ) );
#28 = PRODUCT_DEFINITION_FORMATION_WITH_SPECIFIED_SOURCE ( 'ANY', '', #1, .NOT_KNOWN. ) ;
#29 = PERSON_AND_ORGANIZATION ( #17, #137 ) ;
#30 = CC_DESIGN_APPROVAL ( #53, ( #28 ) ) ;
#31 = ORIENTED_EDGE ( 'NONE', *, *, #119, .T. ) ;
#32 = LOCAL_TIME ( 8, 58, 37.00000000000000000, #87 ) ;
#33 = CARTESIAN_POINT ( 'NONE',  ( -10.00000000000000178, 0.0000000000000000000, 2.000000000000000000 ) ) ;
#34 = SECURITY_CLASSIFICATION ( '', '', #149 ) ;
#35 = LOCAL_TIME ( 8, 58, 37.00000000000000000, #100 ) ;
#36 = CARTESIAN_POINT ( 'NONE',  ( 0.0000000000000000000, 0.0000000000000000000, 2.000000000000000000 ) ) ;
#37 = CC_DESIGN_PERSON_AND_ORGANIZATION_ASSIGNMENT ( #111, #58, ( #28 ) ) ;
#38 = APPROVAL_ROLE ( '' ) ;
#39 = DATE_TIME_ROLE ( 'creation_date' ) ;
#40 = CLOSED_SHELL ( 'NONE', ( #154, #165, #162, #63 ) ) ;
#41 = APPROVAL_STATUS ( 'not_yet_approved' ) ;
#42 = MECHANICAL_CONTEXT ( 'NONE', #91, 'mechanical' ) ;
#43 = DATE_AND_TIME ( #136, #32 ) ;
#44 = CIRCLE ( 'NONE', #139, 10.00000000000000178 ) ;
#45 = PERSON_AND_ORGANIZATION ( #17, #137 ) ;
#46 = CC_DESIGN_PERSON_AND_ORGANIZATION_ASSIGNMENT ( #75, #171, ( #34 ) ) ;
#47 = CALENDAR_DATE ( 2020, 4, 11 ) ;
#48 = DIRECTION ( 'NONE',  ( -0.0000000000000000000, -0.0000000000000000000, -1.000000000000000000 ) ) ;
#49 = APPROVAL_DATE_TIME ( #90, #6 ) ;
#50 = CARTESIAN_POINT ( 'NONE',  ( 0.0000000000000000000, 0.0000000000000000000, 0.0000000000000000000 ) ) ;
#51 = EDGE_CURVE ( 'NONE', #156, #129, #174, .T. ) ;
#52 = APPLICATION_PROTOCOL_DEFINITION ( 'international standard', 'config_control_design', 1994, #81 ) ;
#53 = APPROVAL ( #170, 'UNSPECIFIED' ) ;
#54 = CALENDAR_DATE ( 2020, 4, 11 ) ;
#55 = CARTESIAN_POINT ( 'NONE',  ( 0.0000000000000000000, 0.0000000000000000000, 2.000000000000000000 ) ) ;
#56 = ORIENTED_EDGE ( 'NONE', *, *, #89, .T. ) ;
#57 = MANIFOLD_SOLID_BREP ( 'Extrude1', #40 ) ;
#58 = PERSON_AND_ORGANIZATION_ROLE ( 'creator' ) ;
#59 = DIRECTION ( 'NONE',  ( 1.000000000000000000, 0.0000000000000000000, 0.0000000000000000000 ) ) ;
#60 = CC_DESIGN_DATE_AND_TIME_ASSIGNMENT ( #131, #146, ( #34 ) ) ;
#61 = DATE_AND_TIME ( #118, #8 ) ;
#62 = CC_DESIGN_PERSON_AND_ORGANIZATION_ASSIGNMENT ( #66, #67, ( #28 ) ) ;
#63 = ADVANCED_FACE ( 'NONE', ( #153 ), #4, .F. ) ;
#64 = CIRCLE ( 'NONE', #71, 10.00000000000000178 ) ;
#65 = DIRECTION ( 'NONE',  ( 0.0000000000000000000, 0.0000000000000000000, 1.000000000000000000 ) ) ;
#66 = PERSON_AND_ORGANIZATION ( #17, #137 ) ;
#67 = PERSON_AND_ORGANIZATION_ROLE ( 'design_supplier' ) ;
#68 = APPROVAL_STATUS ( 'not_yet_approved' ) ;
#69 = CARTESIAN_POINT ( 'NONE',  ( 0.0000000000000000000, 0.0000000000000000000, 0.0000000000000000000 ) ) ;
#70 = ORIENTED_EDGE ( 'NONE', *, *, #51, .F. ) ;
#71 = AXIS2_PLACEMENT_3D ( 'NONE', #103, #65, #158 ) ;
#72 = AXIS2_PLACEMENT_3D ( 'NONE', #108, #9, #13 ) ;
#73 = CYLINDRICAL_SURFACE ( 'NONE', #72, 10.00000000000000178 ) ;
#74 = EDGE_LOOP ( 'NONE', ( #116, #147 ) ) ;
#75 = PERSON_AND_ORGANIZATION ( #17, #137 ) ;
#76 = DIRECTION ( 'NONE',  ( 1.000000000000000000, 0.0000000000000000000, -0.0000000000000000000 ) ) ;
#77 = DIRECTION ( 'NONE',  ( 0.0000000000000000000, 0.0000000000000000000, 1.000000000000000000 ) ) ;
#78 = APPROVAL ( #68, 'UNSPECIFIED' ) ;
#79 = PERSON_AND_ORGANIZATION ( #17, #137 ) ;
#80 = AXIS2_PLACEMENT_3D ( 'NONE', #50, #142, #76 ) ;
#81 = APPLICATION_CONTEXT ( 'configuration controlled 3d designs of mechanical parts and assemblies' ) ;
#82 = PERSON_AND_ORGANIZATION ( #17, #137 ) ;
#83 = EDGE_CURVE ( 'NONE', #166, #160, #64, .T. ) ;
#84 = LINE ( 'NONE', #157, #24 ) ;
#85 = APPROVAL_PERSON_ORGANIZATION ( #45, #6, #134 ) ;
#86 = DESIGN_CONTEXT ( 'detailed design', #81, 'design' ) ;
#87 = COORDINATED_UNIVERSAL_TIME_OFFSET ( 5, 0, .BEHIND. ) ;
#88 = DIRECTION ( 'NONE',  ( -0.0000000000000000000, -0.0000000000000000000, -1.000000000000000000 ) ) ;
#89 = EDGE_CURVE ( 'NONE', #156, #166, #126, .T. ) ;
#90 = DATE_AND_TIME ( #152, #5 ) ;
#91 = APPLICATION_CONTEXT ( 'configuration controlled 3d designs of mechanical parts and assemblies' ) ;
#92 = CC_DESIGN_APPROVAL ( #78, ( #34 ) ) ;
#93 =( LENGTH_UNIT ( ) NAMED_UNIT ( * ) SI_UNIT ( .MILLI., .METRE. ) );
#94 = DIRECTION ( 'NONE',  ( 1.000000000000000000, 0.0000000000000000000, 0.0000000000000000000 ) ) ;
#95 = PLANE ( 'NONE',  #123 ) ;
#96 = DIRECTION ( 'NONE',  ( 1.000000000000000000, 0.0000000000000000000, -0.0000000000000000000 ) ) ;
#97 = PERSON_AND_ORGANIZATION ( #17, #137 ) ;
#98 = CC_DESIGN_PERSON_AND_ORGANIZATION_ASSIGNMENT ( #29, #7, ( #1 ) ) ;
#99 = DATE_AND_TIME ( #47, #121 ) ;
#100 = COORDINATED_UNIVERSAL_TIME_OFFSET ( 5, 0, .BEHIND. ) ;
#101 = ORIENTED_EDGE ( 'NONE', *, *, #124, .T. ) ;
#102 = APPROVAL_DATE_TIME ( #99, #78 ) ;
#103 = CARTESIAN_POINT ( 'NONE',  ( 0.0000000000000000000, 0.0000000000000000000, 0.0000000000000000000 ) ) ;
#104 = COORDINATED_UNIVERSAL_TIME_OFFSET ( 5, 0, .BEHIND. ) ;
#105 = CARTESIAN_POINT ( 'NONE',  ( -10.00000000000000178, 0.0000000000000000000, 2.000000000000000000 ) ) ;
#106 = DIRECTION ( 'NONE',  ( -1.000000000000000000, 0.0000000000000000000, 0.0000000000000000000 ) ) ;
#107 = FACE_OUTER_BOUND ( 'NONE', #18, .T. ) ;
#108 = CARTESIAN_POINT ( 'NONE',  ( 0.0000000000000000000, 0.0000000000000000000, 2.000000000000000000 ) ) ;
#109 =( NAMED_UNIT ( * ) PLANE_ANGLE_UNIT ( ) SI_UNIT ( $, .RADIAN. ) );
#110 = EDGE_CURVE ( 'NONE', #129, #160, #84, .T. ) ;
#111 = PERSON_AND_ORGANIZATION ( #17, #137 ) ;
#112 = FACE_OUTER_BOUND ( 'NONE', #10, .T. ) ;
#113 = ORIENTED_EDGE ( 'NONE', *, *, #110, .T. ) ;
#114 = ORIENTED_EDGE ( 'NONE', *, *, #124, .F. ) ;
#115 = AXIS2_PLACEMENT_3D ( 'NONE', #55, #144, #59 ) ;
#116 = ORIENTED_EDGE ( 'NONE', *, *, #83, .F. ) ;
#117 = CARTESIAN_POINT ( 'NONE',  ( 10.00000000000000178, 1.224646799147353454E-15, 2.000000000000000000 ) ) ;
#118 = CALENDAR_DATE ( 2020, 4, 11 ) ;
#119 = EDGE_CURVE ( 'NONE', #160, #166, #44, .T. ) ;
#120 = PERSON_AND_ORGANIZATION_ROLE ( 'creator' ) ;
#121 = LOCAL_TIME ( 8, 58, 37.00000000000000000, #155 ) ;
#122 = APPLICATION_PROTOCOL_DEFINITION ( 'international standard', 'config_control_design', 1994, #91 ) ;
#123 = AXIS2_PLACEMENT_3D ( 'NONE', #36, #167, #96 ) ;
#124 = EDGE_CURVE ( 'NONE', #129, #156, #14, .T. ) ;
#125 = DIRECTION ( 'NONE',  ( 0.0000000000000000000, 0.0000000000000000000, 1.000000000000000000 ) ) ;
#126 = LINE ( 'NONE', #33, #163 ) ;
#127 = ORIENTED_EDGE ( 'NONE', *, *, #110, .F. ) ;
#128 =( GEOMETRIC_REPRESENTATION_CONTEXT ( 3 ) GLOBAL_UNCERTAINTY_ASSIGNED_CONTEXT ( ( #135 ) ) GLOBAL_UNIT_ASSIGNED_CONTEXT ( ( #93, #109, #27 ) ) REPRESENTATION_CONTEXT ( 'NONE', 'WORKASPACE' ) );
#129 = VERTEX_POINT ( 'NONE', #117 ) ;
#130 = DIRECTION ( 'NONE',  ( 1.000000000000000000, 0.0000000000000000000, 0.0000000000000000000 ) ) ;
#131 = DATE_AND_TIME ( #54, #35 ) ;
#132 = CARTESIAN_POINT ( 'NONE',  ( 0.0000000000000000000, 0.0000000000000000000, 0.0000000000000000000 ) ) ;
#133 = APPROVAL_ROLE ( '' ) ;
#134 = APPROVAL_ROLE ( '' ) ;
#135 = UNCERTAINTY_MEASURE_WITH_UNIT (LENGTH_MEASURE( 1.000000000000000082E-05 ), #93, 'distance_accuracy_value', 'NONE');
#136 = CALENDAR_DATE ( 2020, 4, 11 ) ;
#137 = ORGANIZATION ( 'UNSPECIFIED', 'UNSPECIFIED', '' ) ;
#138 = SHAPE_DEFINITION_REPRESENTATION ( #11, #168 ) ;
#139 = AXIS2_PLACEMENT_3D ( 'NONE', #69, #143, #12 ) ;
#140 = CARTESIAN_POINT ( 'NONE',  ( 0.0000000000000000000, 0.0000000000000000000, 2.000000000000000000 ) ) ;
#141 = APPROVAL_DATE_TIME ( #43, #53 ) ;
#142 = DIRECTION ( 'NONE',  ( 0.0000000000000000000, 0.0000000000000000000, 1.000000000000000000 ) ) ;
#143 = DIRECTION ( 'NONE',  ( 0.0000000000000000000, 0.0000000000000000000, 1.000000000000000000 ) ) ;
#144 = DIRECTION ( 'NONE',  ( 0.0000000000000000000, 0.0000000000000000000, 1.000000000000000000 ) ) ;
#145 = ORIENTED_EDGE ( 'NONE', *, *, #51, .T. ) ;
#146 = DATE_TIME_ROLE ( 'classification_date' ) ;
#147 = ORIENTED_EDGE ( 'NONE', *, *, #119, .F. ) ;
#148 = AXIS2_PLACEMENT_3D ( 'NONE', #140, #77, #130 ) ;
#149 = SECURITY_CLASSIFICATION_LEVEL ( 'unclassified' ) ;
#150 = CC_DESIGN_SECURITY_CLASSIFICATION ( #34, ( #28 ) ) ;
#151 = COORDINATED_UNIVERSAL_TIME_OFFSET ( 5, 0, .BEHIND. ) ;
#152 = CALENDAR_DATE ( 2020, 4, 11 ) ;
#153 = FACE_OUTER_BOUND ( 'NONE', #74, .T. ) ;
#154 = ADVANCED_FACE ( 'NONE', ( #2 ), #173, .T. ) ;
#155 = COORDINATED_UNIVERSAL_TIME_OFFSET ( 5, 0, .BEHIND. ) ;
#156 = VERTEX_POINT ( 'NONE', #105 ) ;
#157 = CARTESIAN_POINT ( 'NONE',  ( 10.00000000000000178, 1.224646799147353454E-15, 2.000000000000000000 ) ) ;
#158 = DIRECTION ( 'NONE',  ( 1.000000000000000000, 0.0000000000000000000, 0.0000000000000000000 ) ) ;
#159 = CARTESIAN_POINT ( 'NONE',  ( 0.0000000000000000000, 0.0000000000000000000, 2.000000000000000000 ) ) ;
#160 = VERTEX_POINT ( 'NONE', #25 ) ;
#161 = DIRECTION ( 'NONE',  ( -0.0000000000000000000, -0.0000000000000000000, -1.000000000000000000 ) ) ;
#162 = ADVANCED_FACE ( 'NONE', ( #112 ), #95, .T. ) ;
#163 = VECTOR ( 'NONE', #48, 1000.000000000000000 ) ;
#164 = AXIS2_PLACEMENT_3D ( 'NONE', #132, #125, #94 ) ;
#165 = ADVANCED_FACE ( 'NONE', ( #107 ), #73, .T. ) ;
#166 = VERTEX_POINT ( 'NONE', #26 ) ;
#167 = DIRECTION ( 'NONE',  ( 0.0000000000000000000, 0.0000000000000000000, 1.000000000000000000 ) ) ;
#168 = ADVANCED_BREP_SHAPE_REPRESENTATION ( 'Web Model 84464_13352', ( #57, #164 ), #128 ) ;
#169 = EDGE_LOOP ( 'NONE', ( #114, #113, #31, #22 ) ) ;
#170 = APPROVAL_STATUS ( 'not_yet_approved' ) ;
#171 = PERSON_AND_ORGANIZATION_ROLE ( 'classification_officer' ) ;
#172 = PRODUCT_RELATED_PRODUCT_CATEGORY ( 'detail', '', ( #1 ) ) ;
#173 = CYLINDRICAL_SURFACE ( 'NONE', #175, 10.00000000000000178 ) ;
#174 = CIRCLE ( 'NONE', #148, 10.00000000000000178 ) ;
#175 = AXIS2_PLACEMENT_3D ( 'NONE', #159, #161, #106 ) ;
ENDSEC;
END-ISO-10303-21;
