ISO-10303-21;
HEADER;
FILE_DESCRIPTION (( 'STEP AP203' ),
    '1' );
FILE_NAME ('Web Model 31432_31433.step',
    '2017-04-10T18:13:56',
    ( '' ),
    ( '' ),
    'SwSTEP 2.0',
    'SolidWorks 2016',
    '' );
FILE_SCHEMA (( 'CONFIG_CONTROL_DESIGN' ));
ENDSEC;

DATA;
#1 = CARTESIAN_POINT ( 'NONE',  ( 25.49999999999998600, 38.00000000000000700, 1.500000000000000000 ) ) ;
#2 = CARTESIAN_POINT ( 'NONE',  ( 25.49999999999999600, -37.99999999999999300, 1.500000000000000000 ) ) ;
#3 = CALENDAR_DATE ( 2017, 10, 4 ) ;
#4 = LINE ( 'NONE', #208, #134 ) ;
#5 = DIRECTION ( 'NONE',  ( -0.0000000000000000000, -0.0000000000000000000, -1.000000000000000000 ) ) ;
#6 = VECTOR ( 'NONE', #27, 1000.000000000000000 ) ;
#7 = CARTESIAN_POINT ( 'NONE',  ( 25.49999999999998600, 38.00000000000000700, -1.500000000000000000 ) ) ;
#8 = ORIENTED_EDGE ( 'NONE', *, *, #152, .F. ) ;
#9 = SECURITY_CLASSIFICATION_LEVEL ( 'unclassified' ) ;
#10 = APPLICATION_CONTEXT ( 'configuration controlled 3d designs of mechanical parts and assemblies' ) ;
#11 = SECURITY_CLASSIFICATION ( '', '', #9 ) ;
#12 = DIRECTION ( 'NONE',  ( -0.0000000000000000000, 0.0000000000000000000, 1.000000000000000000 ) ) ;
#13 = VERTEX_POINT ( 'NONE', #14 ) ;
#14 = CARTESIAN_POINT ( 'NONE',  ( -25.50000000000000000, -37.99999999999999300, 1.500000000000000000 ) ) ;
#15 = VERTEX_POINT ( 'NONE', #171 ) ;
#16 = LINE ( 'NONE', #186, #138 ) ;
#17 = PLANE ( 'NONE',  #164 ) ;
#18 = PLANE ( 'NONE',  #162 ) ;
#19 = LOCAL_TIME ( 14, 13, 56.00000000000000000, #165 ) ;
#20 = VERTEX_POINT ( 'NONE', #26 ) ;
#21 = DIRECTION ( 'NONE',  ( -0.0000000000000000000, -0.0000000000000000000, -1.000000000000000000 ) ) ;
#22 = CC_DESIGN_PERSON_AND_ORGANIZATION_ASSIGNMENT ( #31, #228, ( #229 ) ) ;
#23 = APPLICATION_PROTOCOL_DEFINITION ( 'international standard', 'config_control_design', 1994, #10 ) ;
#24 = EDGE_LOOP ( 'NONE', ( #115, #107, #72, #52 ) ) ;
#25 = ORIENTED_EDGE ( 'NONE', *, *, #95, .T. ) ;
#26 = CARTESIAN_POINT ( 'NONE',  ( 25.49999999999998600, 38.00000000000000700, 1.500000000000000000 ) ) ;
#27 = DIRECTION ( 'NONE',  ( 1.000000000000000000, 0.0000000000000000000, 0.0000000000000000000 ) ) ;
#28 = APPROVAL_DATE_TIME ( #146, #214 ) ;
#29 = APPROVAL_PERSON_ORGANIZATION ( #158, #151, #133 ) ;
#30 = VECTOR ( 'NONE', #217, 1000.000000000000000 ) ;
#31 = PERSON_AND_ORGANIZATION ( #132, #170 ) ;
#32 = APPROVAL_ROLE ( '' ) ;
#33 = APPROVAL_PERSON_ORGANIZATION ( #35, #136, #207 ) ;
#34 = AXIS2_PLACEMENT_3D ( 'NONE', #219, #123, #149 ) ;
#35 = PERSON_AND_ORGANIZATION ( #132, #170 ) ;
#36 = DIRECTION ( 'NONE',  ( 0.0000000000000000000, -0.0000000000000000000, 1.000000000000000000 ) ) ;
#37 = VECTOR ( 'NONE', #54, 1000.000000000000000 ) ;
#38 = VECTOR ( 'NONE', #56, 1000.000000000000000 ) ;
#39 = CALENDAR_DATE ( 2017, 10, 4 ) ;
#40 = PRODUCT_RELATED_PRODUCT_CATEGORY ( 'detail', '', ( #159 ) ) ;
#41 = CARTESIAN_POINT ( 'NONE',  ( -25.50000000000000700, 38.00000000000000700, 1.500000000000000000 ) ) ;
#42 = DIRECTION ( 'NONE',  ( 0.0000000000000000000, 1.000000000000000000, 0.0000000000000000000 ) ) ;
#43 = COORDINATED_UNIVERSAL_TIME_OFFSET ( 5, 0, .BEHIND. ) ;
#44 = ADVANCED_BREP_SHAPE_REPRESENTATION ( 'Web Model 31432_31433', ( #222, #155 ), #85 ) ;
#45 = DATE_TIME_ROLE ( 'creation_date' ) ;
#46 = ORIENTED_EDGE ( 'NONE', *, *, #102, .T. ) ;
#47 = ORIENTED_EDGE ( 'NONE', *, *, #111, .F. ) ;
#48 = VECTOR ( 'NONE', #201, 1000.000000000000000 ) ;
#49 = CARTESIAN_POINT ( 'NONE',  ( 0.0000000000000000000, 0.0000000000000000000, -1.500000000000000000 ) ) ;
#50 = VERTEX_POINT ( 'NONE', #7 ) ;
#51 = DIRECTION ( 'NONE',  ( 1.369518533665900300E-016, -1.000000000000000000, 0.0000000000000000000 ) ) ;
#52 = ORIENTED_EDGE ( 'NONE', *, *, #102, .F. ) ;
#53 = CC_DESIGN_PERSON_AND_ORGANIZATION_ASSIGNMENT ( #232, #223, ( #11 ) ) ;
#54 = DIRECTION ( 'NONE',  ( -1.369518533665900300E-016, 1.000000000000000000, -0.0000000000000000000 ) ) ;
#55 = VERTEX_POINT ( 'NONE', #2 ) ;
#56 = DIRECTION ( 'NONE',  ( -1.369518533665900300E-016, 1.000000000000000000, -0.0000000000000000000 ) ) ;
#57 = CARTESIAN_POINT ( 'NONE',  ( -25.50000000000000700, 38.00000000000000700, 1.500000000000000000 ) ) ;
#58 = PLANE ( 'NONE',  #34 ) ;
#59 = CC_DESIGN_PERSON_AND_ORGANIZATION_ASSIGNMENT ( #215, #178, ( #229 ) ) ;
#60 = VECTOR ( 'NONE', #174, 1000.000000000000000 ) ;
#61 = PERSON_AND_ORGANIZATION_ROLE ( 'design_owner' ) ;
#62 = LINE ( 'NONE', #157, #30 ) ;
#63 = ORIENTED_EDGE ( 'NONE', *, *, #128, .F. ) ;
#64 = CARTESIAN_POINT ( 'NONE',  ( 25.49999999999999600, -37.99999999999999300, 1.500000000000000000 ) ) ;
#65 = DIRECTION ( 'NONE',  ( -1.000000000000000000, -0.0000000000000000000, -0.0000000000000000000 ) ) ;
#66 = ORIENTED_EDGE ( 'NONE', *, *, #117, .T. ) ;
#67 = APPROVAL_DATE_TIME ( #140, #151 ) ;
#68 = AXIS2_PLACEMENT_3D ( 'NONE', #41, #78, #189 ) ;
#69 = PERSON_AND_ORGANIZATION ( #132, #170 ) ;
#70 = PERSON_AND_ORGANIZATION ( #132, #170 ) ;
#71 = ORIENTED_EDGE ( 'NONE', *, *, #198, .T. ) ;
#72 = ORIENTED_EDGE ( 'NONE', *, *, #156, .F. ) ;
#73 = AXIS2_PLACEMENT_3D ( 'NONE', #210, #42, #36 ) ;
#74 = CARTESIAN_POINT ( 'NONE',  ( -25.50000000000000000, -37.99999999999999300, 1.500000000000000000 ) ) ;
#75 = APPROVAL_PERSON_ORGANIZATION ( #70, #214, #32 ) ;
#76 = FACE_OUTER_BOUND ( 'NONE', #126, .T. ) ;
#77 = CARTESIAN_POINT ( 'NONE',  ( -25.50000000000000000, -37.99999999999999300, -1.500000000000000000 ) ) ;
#78 = DIRECTION ( 'NONE',  ( 0.0000000000000000000, -1.000000000000000000, 0.0000000000000000000 ) ) ;
#79 = CC_DESIGN_APPROVAL ( #136, ( #11 ) ) ;
#80 = LINE ( 'NONE', #180, #6 ) ;
#81 = DIRECTION ( 'NONE',  ( 1.369518533665900100E-016, -1.000000000000000000, 0.0000000000000000000 ) ) ;
#82 = EDGE_LOOP ( 'NONE', ( #230, #173, #224, #235 ) ) ;
#83 = LINE ( 'NONE', #226, #38 ) ;
#84 = DIRECTION ( 'NONE',  ( 1.000000000000000000, 0.0000000000000000000, 0.0000000000000000000 ) ) ;
#85 =( GEOMETRIC_REPRESENTATION_CONTEXT ( 3 ) GLOBAL_UNCERTAINTY_ASSIGNED_CONTEXT ( ( #127 ) ) GLOBAL_UNIT_ASSIGNED_CONTEXT ( ( #108, #142, #192 ) ) REPRESENTATION_CONTEXT ( 'NONE', 'WORKASPACE' ) );
#86 = EDGE_CURVE ( 'NONE', #90, #13, #62, .T. ) ;
#87 = ADVANCED_FACE ( 'NONE', ( #200 ), #17, .F. ) ;
#88 = ORIENTED_EDGE ( 'NONE', *, *, #111, .T. ) ;
#89 = ORIENTED_EDGE ( 'NONE', *, *, #128, .T. ) ;
#90 = VERTEX_POINT ( 'NONE', #57 ) ;
#91 = SHAPE_DEFINITION_REPRESENTATION ( #183, #44 ) ;
#92 = CARTESIAN_POINT ( 'NONE',  ( 25.49999999999999600, -37.99999999999999300, -1.500000000000000000 ) ) ;
#93 = FACE_OUTER_BOUND ( 'NONE', #168, .T. ) ;
#94 = VECTOR ( 'NONE', #51, 1000.000000000000000 ) ;
#95 = EDGE_CURVE ( 'NONE', #13, #101, #163, .T. ) ;
#96 = CARTESIAN_POINT ( 'NONE',  ( -25.50000000000000700, 38.00000000000000700, -1.500000000000000000 ) ) ;
#97 = LOCAL_TIME ( 14, 13, 56.00000000000000000, #124 ) ;
#98 = APPLICATION_PROTOCOL_DEFINITION ( 'international standard', 'config_control_design', 1994, #190 ) ;
#99 = ORIENTED_EDGE ( 'NONE', *, *, #131, .F. ) ;
#100 = ORIENTED_EDGE ( 'NONE', *, *, #137, .T. ) ;
#101 = VERTEX_POINT ( 'NONE', #77 ) ;
#102 = EDGE_CURVE ( 'NONE', #50, #15, #193, .T. ) ;
#103 = DIRECTION ( 'NONE',  ( 1.000000000000000000, 0.0000000000000000000, 0.0000000000000000000 ) ) ;
#104 = DIRECTION ( 'NONE',  ( -1.000000000000000000, -1.369518533665900100E-016, 0.0000000000000000000 ) ) ;
#105 = VERTEX_POINT ( 'NONE', #92 ) ;
#106 = DATE_AND_TIME ( #39, #97 ) ;
#107 = ORIENTED_EDGE ( 'NONE', *, *, #198, .F. ) ;
#108 =( LENGTH_UNIT ( ) NAMED_UNIT ( * ) SI_UNIT ( .MILLI., .METRE. ) );
#109 = CALENDAR_DATE ( 2017, 10, 4 ) ;
#110 = CARTESIAN_POINT ( 'NONE',  ( 0.0000000000000000000, 0.0000000000000000000, 1.500000000000000000 ) ) ;
#111 = EDGE_CURVE ( 'NONE', #55, #105, #227, .T. ) ;
#112 = EDGE_LOOP ( 'NONE', ( #144, #63, #99, #88 ) ) ;
#113 = CALENDAR_DATE ( 2017, 10, 4 ) ;
#114 = CLOSED_SHELL ( 'NONE', ( #175, #212, #172, #118, #206, #87 ) ) ;
#115 = ORIENTED_EDGE ( 'NONE', *, *, #122, .F. ) ;
#116 = PRODUCT_DEFINITION ( 'UNKNOWN', '', #229, #211 ) ;
#117 = EDGE_CURVE ( 'NONE', #20, #90, #16, .T. ) ;
#118 = ADVANCED_FACE ( 'NONE', ( #130 ), #169, .F. ) ;
#119 = COORDINATED_UNIVERSAL_TIME_OFFSET ( 5, 0, .BEHIND. ) ;
#120 = CARTESIAN_POINT ( 'NONE',  ( 25.49999999999998600, 38.00000000000000700, 1.500000000000000000 ) ) ;
#121 = CC_DESIGN_PERSON_AND_ORGANIZATION_ASSIGNMENT ( #69, #61, ( #159 ) ) ;
#122 = EDGE_CURVE ( 'NONE', #105, #50, #83, .T. ) ;
#123 = DIRECTION ( 'NONE',  ( 1.000000000000000000, 1.369518533665900100E-016, -0.0000000000000000000 ) ) ;
#124 = COORDINATED_UNIVERSAL_TIME_OFFSET ( 5, 0, .BEHIND. ) ;
#125 = CARTESIAN_POINT ( 'NONE',  ( -25.50000000000000700, 38.00000000000000700, -1.500000000000000000 ) ) ;
#126 = EDGE_LOOP ( 'NONE', ( #129, #66, #188, #100 ) ) ;
#127 = UNCERTAINTY_MEASURE_WITH_UNIT (LENGTH_MEASURE( 1.000000000000000100E-005 ), #108, 'distance_accuracy_value', 'NONE');
#128 = EDGE_CURVE ( 'NONE', #20, #50, #187, .T. ) ;
#129 = ORIENTED_EDGE ( 'NONE', *, *, #131, .T. ) ;
#130 = FACE_OUTER_BOUND ( 'NONE', #202, .T. ) ;
#131 = EDGE_CURVE ( 'NONE', #55, #20, #225, .T. ) ;
#132 = PERSON ( 'UNSPECIFIED', 'UNSPECIFIED', 'UNSPECIFIED', ('UNSPECIFIED'), ('UNSPECIFIED'), ('UNSPECIFIED') ) ;
#133 = APPROVAL_ROLE ( '' ) ;
#134 = VECTOR ( 'NONE', #21, 1000.000000000000000 ) ;
#135 = PERSON_AND_ORGANIZATION_ROLE ( 'creator' ) ;
#136 = APPROVAL ( #209, 'UNSPECIFIED' ) ;
#137 = EDGE_CURVE ( 'NONE', #13, #55, #182, .T. ) ;
#138 = VECTOR ( 'NONE', #65, 1000.000000000000000 ) ;
#139 = AXIS2_PLACEMENT_3D ( 'NONE', #120, #104, #81 ) ;
#140 = DATE_AND_TIME ( #113, #19 ) ;
#141 = DATE_AND_TIME ( #109, #184 ) ;
#142 =( NAMED_UNIT ( * ) PLANE_ANGLE_UNIT ( ) SI_UNIT ( $, .RADIAN. ) );
#143 = LOCAL_TIME ( 14, 13, 56.00000000000000000, #43 ) ;
#144 = ORIENTED_EDGE ( 'NONE', *, *, #122, .T. ) ;
#145 = PLANE ( 'NONE',  #139 ) ;
#146 = DATE_AND_TIME ( #150, #143 ) ;
#147 = CC_DESIGN_DATE_AND_TIME_ASSIGNMENT ( #141, #45, ( #116 ) ) ;
#148 = MECHANICAL_CONTEXT ( 'NONE', #10, 'mechanical' ) ;
#149 = DIRECTION ( 'NONE',  ( -1.369518533665900100E-016, 1.000000000000000000, 0.0000000000000000000 ) ) ;
#150 = CALENDAR_DATE ( 2017, 10, 4 ) ;
#151 = APPROVAL ( #194, 'UNSPECIFIED' ) ;
#152 = EDGE_CURVE ( 'NONE', #90, #15, #4, .T. ) ;
#153 = DIRECTION ( 'NONE',  ( -0.0000000000000000000, 0.0000000000000000000, 1.000000000000000000 ) ) ;
#154 = LINE ( 'NONE', #125, #94 ) ;
#155 = AXIS2_PLACEMENT_3D ( 'NONE', #176, #196, #103 ) ;
#156 = EDGE_CURVE ( 'NONE', #15, #101, #154, .T. ) ;
#157 = CARTESIAN_POINT ( 'NONE',  ( -25.50000000000000700, 38.00000000000000700, 1.500000000000000000 ) ) ;
#158 = PERSON_AND_ORGANIZATION ( #132, #170 ) ;
#159 = PRODUCT ( 'Web Model 31432_31433', 'Web Model 31432_31433', '', ( #148 ) ) ;
#160 = FACE_OUTER_BOUND ( 'NONE', #112, .T. ) ;
#161 = LOCAL_TIME ( 14, 13, 56.00000000000000000, #119 ) ;
#162 = AXIS2_PLACEMENT_3D ( 'NONE', #110, #12, #197 ) ;
#163 = LINE ( 'NONE', #74, #60 ) ;
#164 = AXIS2_PLACEMENT_3D ( 'NONE', #49, #153, #84 ) ;
#165 = COORDINATED_UNIVERSAL_TIME_OFFSET ( 5, 0, .BEHIND. ) ;
#166 = CARTESIAN_POINT ( 'NONE',  ( 25.49999999999998600, 38.00000000000000700, 1.500000000000000000 ) ) ;
#167 = APPROVAL_STATUS ( 'not_yet_approved' ) ;
#168 = EDGE_LOOP ( 'NONE', ( #46, #8, #218, #89 ) ) ;
#169 = PLANE ( 'NONE',  #73 ) ;
#170 = ORGANIZATION ( 'UNSPECIFIED', 'UNSPECIFIED', '' ) ;
#171 = CARTESIAN_POINT ( 'NONE',  ( -25.50000000000000700, 38.00000000000000700, -1.500000000000000000 ) ) ;
#172 = ADVANCED_FACE ( 'NONE', ( #203 ), #58, .F. ) ;
#173 = ORIENTED_EDGE ( 'NONE', *, *, #95, .F. ) ;
#174 = DIRECTION ( 'NONE',  ( -0.0000000000000000000, -0.0000000000000000000, -1.000000000000000000 ) ) ;
#175 = ADVANCED_FACE ( 'NONE', ( #160 ), #145, .F. ) ;
#176 = CARTESIAN_POINT ( 'NONE',  ( 0.0000000000000000000, 0.0000000000000000000, 0.0000000000000000000 ) ) ;
#177 = PERSON_AND_ORGANIZATION ( #132, #170 ) ;
#178 = PERSON_AND_ORGANIZATION_ROLE ( 'design_supplier' ) ;
#179 = CC_DESIGN_PERSON_AND_ORGANIZATION_ASSIGNMENT ( #177, #135, ( #116 ) ) ;
#180 = CARTESIAN_POINT ( 'NONE',  ( -25.50000000000000000, -37.99999999999999300, -1.500000000000000000 ) ) ;
#181 = DATE_TIME_ROLE ( 'classification_date' ) ;
#182 = LINE ( 'NONE', #221, #48 ) ;
#183 = PRODUCT_DEFINITION_SHAPE ( 'NONE', 'NONE',  #116 ) ;
#184 = LOCAL_TIME ( 14, 13, 56.00000000000000000, #199 ) ;
#185 = CC_DESIGN_APPROVAL ( #214, ( #229 ) ) ;
#186 = CARTESIAN_POINT ( 'NONE',  ( -25.50000000000000700, 38.00000000000000700, 1.500000000000000000 ) ) ;
#187 = LINE ( 'NONE', #1, #191 ) ;
#188 = ORIENTED_EDGE ( 'NONE', *, *, #86, .T. ) ;
#189 = DIRECTION ( 'NONE',  ( 0.0000000000000000000, -0.0000000000000000000, -1.000000000000000000 ) ) ;
#190 = APPLICATION_CONTEXT ( 'configuration controlled 3d designs of mechanical parts and assemblies' ) ;
#191 = VECTOR ( 'NONE', #5, 1000.000000000000000 ) ;
#192 =( NAMED_UNIT ( * ) SI_UNIT ( $, .STERADIAN. ) SOLID_ANGLE_UNIT ( ) );
#193 = LINE ( 'NONE', #96, #204 ) ;
#194 = APPROVAL_STATUS ( 'not_yet_approved' ) ;
#195 = VECTOR ( 'NONE', #234, 1000.000000000000000 ) ;
#196 = DIRECTION ( 'NONE',  ( 0.0000000000000000000, 0.0000000000000000000, 1.000000000000000000 ) ) ;
#197 = DIRECTION ( 'NONE',  ( 1.000000000000000000, 0.0000000000000000000, 0.0000000000000000000 ) ) ;
#198 = EDGE_CURVE ( 'NONE', #101, #105, #80, .T. ) ;
#199 = COORDINATED_UNIVERSAL_TIME_OFFSET ( 5, 0, .BEHIND. ) ;
#200 = FACE_OUTER_BOUND ( 'NONE', #24, .T. ) ;
#201 = DIRECTION ( 'NONE',  ( 1.000000000000000000, 0.0000000000000000000, 0.0000000000000000000 ) ) ;
#202 = EDGE_LOOP ( 'NONE', ( #71, #47, #236, #25 ) ) ;
#203 = FACE_OUTER_BOUND ( 'NONE', #82, .T. ) ;
#204 = VECTOR ( 'NONE', #231, 1000.000000000000000 ) ;
#205 = DATE_AND_TIME ( #3, #161 ) ;
#206 = ADVANCED_FACE ( 'NONE', ( #76 ), #18, .T. ) ;
#207 = APPROVAL_ROLE ( '' ) ;
#208 = CARTESIAN_POINT ( 'NONE',  ( -25.50000000000000700, 38.00000000000000700, 1.500000000000000000 ) ) ;
#209 = APPROVAL_STATUS ( 'not_yet_approved' ) ;
#210 = CARTESIAN_POINT ( 'NONE',  ( -25.50000000000000000, -37.99999999999999300, 1.500000000000000000 ) ) ;
#211 = DESIGN_CONTEXT ( 'detailed design', #190, 'design' ) ;
#212 = ADVANCED_FACE ( 'NONE', ( #93 ), #216, .F. ) ;
#213 = APPROVAL_DATE_TIME ( #205, #136 ) ;
#214 = APPROVAL ( #167, 'UNSPECIFIED' ) ;
#215 = PERSON_AND_ORGANIZATION ( #132, #170 ) ;
#216 = PLANE ( 'NONE',  #68 ) ;
#217 = DIRECTION ( 'NONE',  ( 1.369518533665900300E-016, -1.000000000000000000, 0.0000000000000000000 ) ) ;
#218 = ORIENTED_EDGE ( 'NONE', *, *, #117, .F. ) ;
#219 = CARTESIAN_POINT ( 'NONE',  ( -25.50000000000000700, 38.00000000000000700, 1.500000000000000000 ) ) ;
#220 = CC_DESIGN_DATE_AND_TIME_ASSIGNMENT ( #106, #181, ( #11 ) ) ;
#221 = CARTESIAN_POINT ( 'NONE',  ( -25.50000000000000000, -37.99999999999999300, 1.500000000000000000 ) ) ;
#222 = MANIFOLD_SOLID_BREP ( 'Boss-Extrude1', #114 ) ;
#223 = PERSON_AND_ORGANIZATION_ROLE ( 'classification_officer' ) ;
#224 = ORIENTED_EDGE ( 'NONE', *, *, #86, .F. ) ;
#225 = LINE ( 'NONE', #166, #37 ) ;
#226 = CARTESIAN_POINT ( 'NONE',  ( 25.49999999999998600, 38.00000000000000700, -1.500000000000000000 ) ) ;
#227 = LINE ( 'NONE', #64, #195 ) ;
#228 = PERSON_AND_ORGANIZATION_ROLE ( 'creator' ) ;
#229 = PRODUCT_DEFINITION_FORMATION_WITH_SPECIFIED_SOURCE ( 'ANY', '', #159, .NOT_KNOWN. ) ;
#230 = ORIENTED_EDGE ( 'NONE', *, *, #156, .T. ) ;
#231 = DIRECTION ( 'NONE',  ( -1.000000000000000000, -0.0000000000000000000, -0.0000000000000000000 ) ) ;
#232 = PERSON_AND_ORGANIZATION ( #132, #170 ) ;
#233 = CC_DESIGN_APPROVAL ( #151, ( #116 ) ) ;
#234 = DIRECTION ( 'NONE',  ( -0.0000000000000000000, -0.0000000000000000000, -1.000000000000000000 ) ) ;
#235 = ORIENTED_EDGE ( 'NONE', *, *, #152, .T. ) ;
#236 = ORIENTED_EDGE ( 'NONE', *, *, #137, .F. ) ;
#237 = CC_DESIGN_SECURITY_CLASSIFICATION ( #11, ( #229 ) ) ;
ENDSEC;
END-ISO-10303-21;
