ISO-10303-21;
HEADER;
FILE_DESCRIPTION (( 'STEP AP203' ),
    '1' );
FILE_NAME ('Web Model 63212.STEP',
    '2017-01-31T18:45:52',
    ( '' ),
    ( '' ),
    'SwSTEP 2.0',
    'SolidWorks 2016',
    '' );
FILE_SCHEMA (( 'CONFIG_CONTROL_DESIGN' ));
ENDSEC;

DATA;
#1 = PERSON_AND_ORGANIZATION ( #73, #57 ) ;
#2 = CARTESIAN_POINT ( 'NONE',  ( 0.0000000000000000000, 0.0000000000000000000, 4.000000000000000000 ) ) ;
#3 = LINE ( 'NONE', #154, #136 ) ;
#4 = DIRECTION ( 'NONE',  ( 0.0000000000000000000, 0.0000000000000000000, 1.000000000000000000 ) ) ;
#5 = PERSON_AND_ORGANIZATION ( #73, #57 ) ;
#6 = CYLINDRICAL_SURFACE ( 'NONE', #30, 20.00000000000000000 ) ;
#7 = APPROVAL_STATUS ( 'not_yet_approved' ) ;
#8 = CC_DESIGN_PERSON_AND_ORGANIZATION_ASSIGNMENT ( #44, #166, ( #104 ) ) ;
#9 = CIRCLE ( 'NONE', #160, 20.00000000000000000 ) ;
#10 = CC_DESIGN_APPROVAL ( #138, ( #98 ) ) ;
#11 = AXIS2_PLACEMENT_3D ( 'NONE', #2, #140, #49 ) ;
#12 = CARTESIAN_POINT ( 'NONE',  ( 0.0000000000000000000, 0.0000000000000000000, 0.0000000000000000000 ) ) ;
#13 = DATE_AND_TIME ( #151, #149 ) ;
#14 = SECURITY_CLASSIFICATION_LEVEL ( 'unclassified' ) ;
#15 = APPROVAL_PERSON_ORGANIZATION ( #1, #59, #88 ) ;
#16 = PERSON_AND_ORGANIZATION_ROLE ( 'creator' ) ;
#17 = APPROVAL_DATE_TIME ( #13, #59 ) ;
#18 = CALENDAR_DATE ( 2017, 31, 1 ) ;
#19 = VERTEX_POINT ( 'NONE', #150 ) ;
#20 = PERSON_AND_ORGANIZATION ( #73, #57 ) ;
#21 = DIRECTION ( 'NONE',  ( -1.000000000000000000, 0.0000000000000000000, 0.0000000000000000000 ) ) ;
#22 = COORDINATED_UNIVERSAL_TIME_OFFSET ( 5, 0, .BEHIND. ) ;
#23 = ORIENTED_EDGE ( 'NONE', *, *, #76, .T. ) ;
#24 = CC_DESIGN_PERSON_AND_ORGANIZATION_ASSIGNMENT ( #78, #107, ( #89 ) ) ;
#25 = DIRECTION ( 'NONE',  ( -1.000000000000000000, 0.0000000000000000000, 0.0000000000000000000 ) ) ;
#26 = DIRECTION ( 'NONE',  ( 1.000000000000000000, 0.0000000000000000000, -0.0000000000000000000 ) ) ;
#27 = DIRECTION ( 'NONE',  ( 0.0000000000000000000, 0.0000000000000000000, 1.000000000000000000 ) ) ;
#28 = VERTEX_POINT ( 'NONE', #97 ) ;
#29 = PLANE ( 'NONE',  #144 ) ;
#30 = AXIS2_PLACEMENT_3D ( 'NONE', #41, #106, #25 ) ;
#31 = APPROVAL_ROLE ( '' ) ;
#32 = APPROVAL_ROLE ( '' ) ;
#33 = CALENDAR_DATE ( 2017, 31, 1 ) ;
#34 = CIRCLE ( 'NONE', #11, 20.00000000000000000 ) ;
#35 = ORIENTED_EDGE ( 'NONE', *, *, #94, .F. ) ;
#36 = COORDINATED_UNIVERSAL_TIME_OFFSET ( 5, 0, .BEHIND. ) ;
#37 = CARTESIAN_POINT ( 'NONE',  ( 0.0000000000000000000, 0.0000000000000000000, 4.000000000000000000 ) ) ;
#38 = CC_DESIGN_PERSON_AND_ORGANIZATION_ASSIGNMENT ( #48, #147, ( #98 ) ) ;
#39 = DATE_AND_TIME ( #33, #86 ) ;
#40 = DIRECTION ( 'NONE',  ( 1.000000000000000000, 0.0000000000000000000, -0.0000000000000000000 ) ) ;
#41 = CARTESIAN_POINT ( 'NONE',  ( 0.0000000000000000000, 0.0000000000000000000, 4.000000000000000000 ) ) ;
#42 = MANIFOLD_SOLID_BREP ( 'Extrude1', #87 ) ;
#43 = CC_DESIGN_PERSON_AND_ORGANIZATION_ASSIGNMENT ( #20, #56, ( #98 ) ) ;
#44 = PERSON_AND_ORGANIZATION ( #73, #57 ) ;
#45 = PRODUCT_DEFINITION ( 'UNKNOWN', '', #98, #60 ) ;
#46 = AXIS2_PLACEMENT_3D ( 'NONE', #152, #67, #164 ) ;
#47 = APPROVAL ( #159, 'UNSPECIFIED' ) ;
#48 = PERSON_AND_ORGANIZATION ( #73, #57 ) ;
#49 = DIRECTION ( 'NONE',  ( 1.000000000000000000, 0.0000000000000000000, 0.0000000000000000000 ) ) ;
#50 = CARTESIAN_POINT ( 'NONE',  ( -20.00000000000000000, 0.0000000000000000000, 4.000000000000000000 ) ) ;
#51 = CALENDAR_DATE ( 2017, 31, 1 ) ;
#52 = PLANE ( 'NONE',  #79 ) ;
#53 = CARTESIAN_POINT ( 'NONE',  ( 0.0000000000000000000, 0.0000000000000000000, 0.0000000000000000000 ) ) ;
#54 = DIRECTION ( 'NONE',  ( 1.000000000000000000, 0.0000000000000000000, 0.0000000000000000000 ) ) ;
#55 = EDGE_LOOP ( 'NONE', ( #174, #109, #117, #35 ) ) ;
#56 = PERSON_AND_ORGANIZATION_ROLE ( 'design_supplier' ) ;
#57 = ORGANIZATION ( 'UNSPECIFIED', 'UNSPECIFIED', '' ) ;
#58 = ORIENTED_EDGE ( 'NONE', *, *, #113, .T. ) ;
#59 = APPROVAL ( #110, 'UNSPECIFIED' ) ;
#60 = DESIGN_CONTEXT ( 'detailed design', #102, 'design' ) ;
#61 = ADVANCED_FACE ( 'NONE', ( #127 ), #80, .T. ) ;
#62 = FACE_OUTER_BOUND ( 'NONE', #163, .T. ) ;
#63 = CC_DESIGN_APPROVAL ( #59, ( #45 ) ) ;
#64 = ORIENTED_EDGE ( 'NONE', *, *, #85, .F. ) ;
#65 = APPROVAL_DATE_TIME ( #112, #138 ) ;
#66 = CARTESIAN_POINT ( 'NONE',  ( 20.00000000000000000, 2.449293598294706500E-015, 4.000000000000000000 ) ) ;
#67 = DIRECTION ( 'NONE',  ( 0.0000000000000000000, 0.0000000000000000000, 1.000000000000000000 ) ) ;
#68 = AXIS2_PLACEMENT_3D ( 'NONE', #82, #143, #54 ) ;
#69 = ORIENTED_EDGE ( 'NONE', *, *, #94, .T. ) ;
#70 =( LENGTH_UNIT ( ) NAMED_UNIT ( * ) SI_UNIT ( .MILLI., .METRE. ) );
#71 = SHAPE_DEFINITION_REPRESENTATION ( #93, #122 ) ;
#72 = MECHANICAL_CONTEXT ( 'NONE', #155, 'mechanical' ) ;
#73 = PERSON ( 'UNSPECIFIED', 'UNSPECIFIED', 'UNSPECIFIED', ('UNSPECIFIED'), ('UNSPECIFIED'), ('UNSPECIFIED') ) ;
#74 = CC_DESIGN_PERSON_AND_ORGANIZATION_ASSIGNMENT ( #116, #16, ( #45 ) ) ;
#75 = VECTOR ( 'NONE', #81, 1000.000000000000000 ) ;
#76 = EDGE_CURVE ( 'NONE', #100, #19, #34, .T. ) ;
#77 = PRODUCT_RELATED_PRODUCT_CATEGORY ( 'detail', '', ( #104 ) ) ;
#78 = PERSON_AND_ORGANIZATION ( #73, #57 ) ;
#79 = AXIS2_PLACEMENT_3D ( 'NONE', #53, #156, #26 ) ;
#80 = CYLINDRICAL_SURFACE ( 'NONE', #135, 20.00000000000000000 ) ;
#81 = DIRECTION ( 'NONE',  ( -0.0000000000000000000, -0.0000000000000000000, -1.000000000000000000 ) ) ;
#82 = CARTESIAN_POINT ( 'NONE',  ( 0.0000000000000000000, 0.0000000000000000000, 0.0000000000000000000 ) ) ;
#83 = DIRECTION ( 'NONE',  ( 1.000000000000000000, 0.0000000000000000000, 0.0000000000000000000 ) ) ;
#84 =( NAMED_UNIT ( * ) SI_UNIT ( $, .STERADIAN. ) SOLID_ANGLE_UNIT ( ) );
#85 = EDGE_CURVE ( 'NONE', #28, #158, #96, .T. ) ;
#86 = LOCAL_TIME ( 13, 45, 52.00000000000000000, #115 ) ;
#87 = CLOSED_SHELL ( 'NONE', ( #61, #114, #175, #123 ) ) ;
#88 = APPROVAL_ROLE ( '' ) ;
#89 = SECURITY_CLASSIFICATION ( '', '', #14 ) ;
#90 = CC_DESIGN_DATE_AND_TIME_ASSIGNMENT ( #142, #121, ( #45 ) ) ;
#91 = LOCAL_TIME ( 13, 45, 52.00000000000000000, #36 ) ;
#92 = EDGE_LOOP ( 'NONE', ( #124, #141, #69, #58 ) ) ;
#93 = PRODUCT_DEFINITION_SHAPE ( 'NONE', 'NONE',  #45 ) ;
#94 = EDGE_CURVE ( 'NONE', #19, #158, #99, .T. ) ;
#95 = LOCAL_TIME ( 13, 45, 52.00000000000000000, #171 ) ;
#96 = CIRCLE ( 'NONE', #46, 20.00000000000000000 ) ;
#97 = CARTESIAN_POINT ( 'NONE',  ( 20.00000000000000000, 2.449293598294706500E-015, 0.0000000000000000000 ) ) ;
#98 = PRODUCT_DEFINITION_FORMATION_WITH_SPECIFIED_SOURCE ( 'ANY', '', #104, .NOT_KNOWN. ) ;
#99 = LINE ( 'NONE', #50, #75 ) ;
#100 = VERTEX_POINT ( 'NONE', #66 ) ;
#101 = UNCERTAINTY_MEASURE_WITH_UNIT (LENGTH_MEASURE( 1.000000000000000100E-005 ), #70, 'distance_accuracy_value', 'NONE');
#102 = APPLICATION_CONTEXT ( 'configuration controlled 3d designs of mechanical parts and assemblies' ) ;
#103 = DIRECTION ( 'NONE',  ( -0.0000000000000000000, -0.0000000000000000000, -1.000000000000000000 ) ) ;
#104 = PRODUCT ( 'Web Model 63212', 'Web Model 63212', '', ( #72 ) ) ;
#105 = CC_DESIGN_SECURITY_CLASSIFICATION ( #89, ( #98 ) ) ;
#106 = DIRECTION ( 'NONE',  ( -0.0000000000000000000, -0.0000000000000000000, -1.000000000000000000 ) ) ;
#107 = PERSON_AND_ORGANIZATION_ROLE ( 'classification_officer' ) ;
#108 = FACE_OUTER_BOUND ( 'NONE', #92, .T. ) ;
#109 = ORIENTED_EDGE ( 'NONE', *, *, #130, .T. ) ;
#110 = APPROVAL_STATUS ( 'not_yet_approved' ) ;
#111 = CALENDAR_DATE ( 2017, 31, 1 ) ;
#112 = DATE_AND_TIME ( #51, #95 ) ;
#113 = EDGE_CURVE ( 'NONE', #158, #28, #9, .T. ) ;
#114 = ADVANCED_FACE ( 'NONE', ( #108 ), #6, .T. ) ;
#115 = COORDINATED_UNIVERSAL_TIME_OFFSET ( 5, 0, .BEHIND. ) ;
#116 = PERSON_AND_ORGANIZATION ( #73, #57 ) ;
#117 = ORIENTED_EDGE ( 'NONE', *, *, #85, .T. ) ;
#118 = EDGE_CURVE ( 'NONE', #19, #100, #126, .T. ) ;
#119 =( NAMED_UNIT ( * ) PLANE_ANGLE_UNIT ( ) SI_UNIT ( $, .RADIAN. ) );
#120 = ORIENTED_EDGE ( 'NONE', *, *, #118, .T. ) ;
#121 = DATE_TIME_ROLE ( 'creation_date' ) ;
#122 = ADVANCED_BREP_SHAPE_REPRESENTATION ( 'Web Model 63212', ( #42, #68 ), #133 ) ;
#123 = ADVANCED_FACE ( 'NONE', ( #146 ), #52, .F. ) ;
#124 = ORIENTED_EDGE ( 'NONE', *, *, #130, .F. ) ;
#125 = APPROVAL_PERSON_ORGANIZATION ( #5, #47, #32 ) ;
#126 = CIRCLE ( 'NONE', #168, 20.00000000000000000 ) ;
#127 = FACE_OUTER_BOUND ( 'NONE', #55, .T. ) ;
#128 = CARTESIAN_POINT ( 'NONE',  ( 0.0000000000000000000, 0.0000000000000000000, 4.000000000000000000 ) ) ;
#129 = CARTESIAN_POINT ( 'NONE',  ( 0.0000000000000000000, 0.0000000000000000000, 4.000000000000000000 ) ) ;
#130 = EDGE_CURVE ( 'NONE', #100, #28, #3, .T. ) ;
#131 = EDGE_LOOP ( 'NONE', ( #137, #64 ) ) ;
#132 = APPROVAL_PERSON_ORGANIZATION ( #165, #138, #31 ) ;
#133 =( GEOMETRIC_REPRESENTATION_CONTEXT ( 3 ) GLOBAL_UNCERTAINTY_ASSIGNED_CONTEXT ( ( #101 ) ) GLOBAL_UNIT_ASSIGNED_CONTEXT ( ( #70, #119, #84 ) ) REPRESENTATION_CONTEXT ( 'NONE', 'WORKASPACE' ) );
#134 = APPROVAL_DATE_TIME ( #39, #47 ) ;
#135 = AXIS2_PLACEMENT_3D ( 'NONE', #37, #139, #21 ) ;
#136 = VECTOR ( 'NONE', #103, 1000.000000000000000 ) ;
#137 = ORIENTED_EDGE ( 'NONE', *, *, #113, .F. ) ;
#138 = APPROVAL ( #7, 'UNSPECIFIED' ) ;
#139 = DIRECTION ( 'NONE',  ( -0.0000000000000000000, -0.0000000000000000000, -1.000000000000000000 ) ) ;
#140 = DIRECTION ( 'NONE',  ( 0.0000000000000000000, 0.0000000000000000000, 1.000000000000000000 ) ) ;
#141 = ORIENTED_EDGE ( 'NONE', *, *, #118, .F. ) ;
#142 = DATE_AND_TIME ( #18, #157 ) ;
#143 = DIRECTION ( 'NONE',  ( 0.0000000000000000000, 0.0000000000000000000, 1.000000000000000000 ) ) ;
#144 = AXIS2_PLACEMENT_3D ( 'NONE', #129, #27, #40 ) ;
#145 = CARTESIAN_POINT ( 'NONE',  ( -20.00000000000000000, 0.0000000000000000000, 0.0000000000000000000 ) ) ;
#146 = FACE_OUTER_BOUND ( 'NONE', #131, .T. ) ;
#147 = PERSON_AND_ORGANIZATION_ROLE ( 'creator' ) ;
#148 = CC_DESIGN_APPROVAL ( #47, ( #89 ) ) ;
#149 = LOCAL_TIME ( 13, 45, 52.00000000000000000, #22 ) ;
#150 = CARTESIAN_POINT ( 'NONE',  ( -20.00000000000000000, 0.0000000000000000000, 4.000000000000000000 ) ) ;
#151 = CALENDAR_DATE ( 2017, 31, 1 ) ;
#152 = CARTESIAN_POINT ( 'NONE',  ( 0.0000000000000000000, 0.0000000000000000000, 0.0000000000000000000 ) ) ;
#153 = APPLICATION_PROTOCOL_DEFINITION ( 'international standard', 'config_control_design', 1994, #155 ) ;
#154 = CARTESIAN_POINT ( 'NONE',  ( 20.00000000000000000, 2.449293598294706500E-015, 4.000000000000000000 ) ) ;
#155 = APPLICATION_CONTEXT ( 'configuration controlled 3d designs of mechanical parts and assemblies' ) ;
#156 = DIRECTION ( 'NONE',  ( 0.0000000000000000000, 0.0000000000000000000, 1.000000000000000000 ) ) ;
#157 = LOCAL_TIME ( 13, 45, 52.00000000000000000, #172 ) ;
#158 = VERTEX_POINT ( 'NONE', #145 ) ;
#159 = APPROVAL_STATUS ( 'not_yet_approved' ) ;
#160 = AXIS2_PLACEMENT_3D ( 'NONE', #12, #167, #170 ) ;
#161 = DATE_TIME_ROLE ( 'classification_date' ) ;
#162 = DATE_AND_TIME ( #111, #91 ) ;
#163 = EDGE_LOOP ( 'NONE', ( #120, #23 ) ) ;
#164 = DIRECTION ( 'NONE',  ( 1.000000000000000000, 0.0000000000000000000, 0.0000000000000000000 ) ) ;
#165 = PERSON_AND_ORGANIZATION ( #73, #57 ) ;
#166 = PERSON_AND_ORGANIZATION_ROLE ( 'design_owner' ) ;
#167 = DIRECTION ( 'NONE',  ( 0.0000000000000000000, 0.0000000000000000000, 1.000000000000000000 ) ) ;
#168 = AXIS2_PLACEMENT_3D ( 'NONE', #128, #4, #83 ) ;
#169 = CC_DESIGN_DATE_AND_TIME_ASSIGNMENT ( #162, #161, ( #89 ) ) ;
#170 = DIRECTION ( 'NONE',  ( 1.000000000000000000, 0.0000000000000000000, 0.0000000000000000000 ) ) ;
#171 = COORDINATED_UNIVERSAL_TIME_OFFSET ( 5, 0, .BEHIND. ) ;
#172 = COORDINATED_UNIVERSAL_TIME_OFFSET ( 5, 0, .BEHIND. ) ;
#173 = APPLICATION_PROTOCOL_DEFINITION ( 'international standard', 'config_control_design', 1994, #102 ) ;
#174 = ORIENTED_EDGE ( 'NONE', *, *, #76, .F. ) ;
#175 = ADVANCED_FACE ( 'NONE', ( #62 ), #29, .T. ) ;
ENDSEC;
END-ISO-10303-21;
