ISO-10303-21;
HEADER;
FILE_DESCRIPTION (( 'STEP AP203' ),
    '1' );
FILE_NAME ('Web Model 84490.STEP',
    '2017-02-01T15:51:11',
    ( '' ),
    ( '' ),
    'SwSTEP 2.0',
    'SolidWorks 2016',
    '' );
FILE_SCHEMA (( 'CONFIG_CONTROL_DESIGN' ));
ENDSEC;

DATA;
#1 = COORDINATED_UNIVERSAL_TIME_OFFSET ( 5, 0, .BEHIND. ) ;
#2 = ORIENTED_EDGE ( 'NONE', *, *, #170, .T. ) ;
#3 = CARTESIAN_POINT ( 'NONE',  ( 0.0000000000000000000, 0.0000000000000000000, 0.0000000000000000000 ) ) ;
#4 = APPROVAL_PERSON_ORGANIZATION ( #82, #42, #48 ) ;
#5 = CARTESIAN_POINT ( 'NONE',  ( 20.00000000000000000, 2.449293598294706500E-015, 4.000000000000000000 ) ) ;
#6 = CALENDAR_DATE ( 2017, 1, 2 ) ;
#7 = CC_DESIGN_PERSON_AND_ORGANIZATION_ASSIGNMENT ( #114, #158, ( #159 ) ) ;
#8 = DATE_TIME_ROLE ( 'classification_date' ) ;
#9 = ORIENTED_EDGE ( 'NONE', *, *, #29, .T. ) ;
#10 = CC_DESIGN_DATE_AND_TIME_ASSIGNMENT ( #60, #169, ( #32 ) ) ;
#11 = VERTEX_POINT ( 'NONE', #36 ) ;
#12 = COORDINATED_UNIVERSAL_TIME_OFFSET ( 5, 0, .BEHIND. ) ;
#13 = CC_DESIGN_PERSON_AND_ORGANIZATION_ASSIGNMENT ( #163, #74, ( #32 ) ) ;
#14 = APPROVAL_PERSON_ORGANIZATION ( #136, #113, #110 ) ;
#15 = ORIENTED_EDGE ( 'NONE', *, *, #35, .F. ) ;
#16 = DIRECTION ( 'NONE',  ( 0.0000000000000000000, 0.0000000000000000000, 1.000000000000000000 ) ) ;
#17 = APPROVAL_PERSON_ORGANIZATION ( #55, #100, #112 ) ;
#18 = CALENDAR_DATE ( 2017, 1, 2 ) ;
#19 = VECTOR ( 'NONE', #61, 1000.000000000000000 ) ;
#20 = DIRECTION ( 'NONE',  ( 0.0000000000000000000, 0.0000000000000000000, 1.000000000000000000 ) ) ;
#21 =( LENGTH_UNIT ( ) NAMED_UNIT ( * ) SI_UNIT ( .MILLI., .METRE. ) );
#22 = ORIENTED_EDGE ( 'NONE', *, *, #164, .F. ) ;
#23 = DIRECTION ( 'NONE',  ( 0.0000000000000000000, 0.0000000000000000000, 1.000000000000000000 ) ) ;
#24 = CARTESIAN_POINT ( 'NONE',  ( 0.0000000000000000000, 0.0000000000000000000, 0.0000000000000000000 ) ) ;
#25 = ADVANCED_FACE ( 'NONE', ( #142 ), #47, .T. ) ;
#26 = MECHANICAL_CONTEXT ( 'NONE', #93, 'mechanical' ) ;
#27 = CYLINDRICAL_SURFACE ( 'NONE', #174, 20.00000000000000000 ) ;
#28 = APPROVAL_STATUS ( 'not_yet_approved' ) ;
#29 = EDGE_CURVE ( 'NONE', #78, #11, #128, .T. ) ;
#30 = LOCAL_TIME ( 10, 51, 11.00000000000000000, #62 ) ;
#31 = AXIS2_PLACEMENT_3D ( 'NONE', #44, #20, #139 ) ;
#32 = PRODUCT_DEFINITION ( 'UNKNOWN', '', #129, #130 ) ;
#33 = CARTESIAN_POINT ( 'NONE',  ( -20.00000000000000000, 0.0000000000000000000, 0.0000000000000000000 ) ) ;
#34 = UNCERTAINTY_MEASURE_WITH_UNIT (LENGTH_MEASURE( 1.000000000000000100E-005 ), #21, 'distance_accuracy_value', 'NONE');
#35 = EDGE_CURVE ( 'NONE', #78, #135, #40, .T. ) ;
#36 = CARTESIAN_POINT ( 'NONE',  ( -20.00000000000000000, 0.0000000000000000000, 4.000000000000000000 ) ) ;
#37 = CARTESIAN_POINT ( 'NONE',  ( 0.0000000000000000000, 0.0000000000000000000, 0.0000000000000000000 ) ) ;
#38 =( GEOMETRIC_REPRESENTATION_CONTEXT ( 3 ) GLOBAL_UNCERTAINTY_ASSIGNED_CONTEXT ( ( #34 ) ) GLOBAL_UNIT_ASSIGNED_CONTEXT ( ( #21, #156, #70 ) ) REPRESENTATION_CONTEXT ( 'NONE', 'WORKASPACE' ) );
#39 = APPROVAL_STATUS ( 'not_yet_approved' ) ;
#40 = LINE ( 'NONE', #107, #101 ) ;
#41 = APPLICATION_CONTEXT ( 'configuration controlled 3d designs of mechanical parts and assemblies' ) ;
#42 = APPROVAL ( #87, 'UNSPECIFIED' ) ;
#43 = AXIS2_PLACEMENT_3D ( 'NONE', #3, #68, #171 ) ;
#44 = CARTESIAN_POINT ( 'NONE',  ( 0.0000000000000000000, 0.0000000000000000000, 4.000000000000000000 ) ) ;
#45 = COORDINATED_UNIVERSAL_TIME_OFFSET ( 5, 0, .BEHIND. ) ;
#46 = DIRECTION ( 'NONE',  ( -1.000000000000000000, 0.0000000000000000000, 0.0000000000000000000 ) ) ;
#47 = CYLINDRICAL_SURFACE ( 'NONE', #57, 20.00000000000000000 ) ;
#48 = APPROVAL_ROLE ( '' ) ;
#49 = PERSON_AND_ORGANIZATION ( #161, #147 ) ;
#50 = CC_DESIGN_SECURITY_CLASSIFICATION ( #117, ( #129 ) ) ;
#51 = APPLICATION_PROTOCOL_DEFINITION ( 'international standard', 'config_control_design', 1994, #41 ) ;
#52 = LOCAL_TIME ( 10, 51, 11.00000000000000000, #45 ) ;
#53 = FACE_OUTER_BOUND ( 'NONE', #92, .T. ) ;
#54 = ORIENTED_EDGE ( 'NONE', *, *, #170, .F. ) ;
#55 = PERSON_AND_ORGANIZATION ( #161, #147 ) ;
#56 = CALENDAR_DATE ( 2017, 1, 2 ) ;
#57 = AXIS2_PLACEMENT_3D ( 'NONE', #165, #97, #59 ) ;
#58 = DIRECTION ( 'NONE',  ( 1.000000000000000000, 0.0000000000000000000, 0.0000000000000000000 ) ) ;
#59 = DIRECTION ( 'NONE',  ( -1.000000000000000000, 0.0000000000000000000, 0.0000000000000000000 ) ) ;
#60 = DATE_AND_TIME ( #56, #109 ) ;
#61 = DIRECTION ( 'NONE',  ( -0.0000000000000000000, -0.0000000000000000000, -1.000000000000000000 ) ) ;
#62 = COORDINATED_UNIVERSAL_TIME_OFFSET ( 5, 0, .BEHIND. ) ;
#63 = LOCAL_TIME ( 10, 51, 11.00000000000000000, #12 ) ;
#64 = DIRECTION ( 'NONE',  ( 0.0000000000000000000, 0.0000000000000000000, 1.000000000000000000 ) ) ;
#65 = PLANE ( 'NONE',  #91 ) ;
#66 = CC_DESIGN_PERSON_AND_ORGANIZATION_ASSIGNMENT ( #118, #143, ( #129 ) ) ;
#67 = DATE_AND_TIME ( #6, #30 ) ;
#68 = DIRECTION ( 'NONE',  ( 0.0000000000000000000, 0.0000000000000000000, 1.000000000000000000 ) ) ;
#69 = AXIS2_PLACEMENT_3D ( 'NONE', #105, #175, #83 ) ;
#70 =( NAMED_UNIT ( * ) SI_UNIT ( $, .STERADIAN. ) SOLID_ANGLE_UNIT ( ) );
#71 = DATE_AND_TIME ( #131, #63 ) ;
#72 = EDGE_CURVE ( 'NONE', #11, #78, #115, .T. ) ;
#73 = ORIENTED_EDGE ( 'NONE', *, *, #164, .T. ) ;
#74 = PERSON_AND_ORGANIZATION_ROLE ( 'creator' ) ;
#75 = CALENDAR_DATE ( 2017, 1, 2 ) ;
#76 = EDGE_LOOP ( 'NONE', ( #54, #22 ) ) ;
#77 = CC_DESIGN_DATE_AND_TIME_ASSIGNMENT ( #67, #8, ( #117 ) ) ;
#78 = VERTEX_POINT ( 'NONE', #5 ) ;
#79 = AXIS2_PLACEMENT_3D ( 'NONE', #24, #16, #124 ) ;
#80 = DIRECTION ( 'NONE',  ( 1.000000000000000000, 0.0000000000000000000, -0.0000000000000000000 ) ) ;
#81 = VERTEX_POINT ( 'NONE', #33 ) ;
#82 = PERSON_AND_ORGANIZATION ( #161, #147 ) ;
#83 = DIRECTION ( 'NONE',  ( 1.000000000000000000, 0.0000000000000000000, 0.0000000000000000000 ) ) ;
#84 = DIRECTION ( 'NONE',  ( 1.000000000000000000, 0.0000000000000000000, -0.0000000000000000000 ) ) ;
#85 = SECURITY_CLASSIFICATION_LEVEL ( 'unclassified' ) ;
#86 = PERSON_AND_ORGANIZATION_ROLE ( 'classification_officer' ) ;
#87 = APPROVAL_STATUS ( 'not_yet_approved' ) ;
#88 = ORIENTED_EDGE ( 'NONE', *, *, #29, .F. ) ;
#89 = COORDINATED_UNIVERSAL_TIME_OFFSET ( 5, 0, .BEHIND. ) ;
#90 = FACE_OUTER_BOUND ( 'NONE', #106, .T. ) ;
#91 = AXIS2_PLACEMENT_3D ( 'NONE', #37, #64, #80 ) ;
#92 = EDGE_LOOP ( 'NONE', ( #155, #9 ) ) ;
#93 = APPLICATION_CONTEXT ( 'configuration controlled 3d designs of mechanical parts and assemblies' ) ;
#94 = PRODUCT_DEFINITION_SHAPE ( 'NONE', 'NONE',  #32 ) ;
#95 = CARTESIAN_POINT ( 'NONE',  ( 0.0000000000000000000, 0.0000000000000000000, 4.000000000000000000 ) ) ;
#96 = CC_DESIGN_APPROVAL ( #42, ( #129 ) ) ;
#97 = DIRECTION ( 'NONE',  ( -0.0000000000000000000, -0.0000000000000000000, -1.000000000000000000 ) ) ;
#98 = ADVANCED_FACE ( 'NONE', ( #53 ), #153, .T. ) ;
#99 = PERSON_AND_ORGANIZATION_ROLE ( 'design_supplier' ) ;
#100 = APPROVAL ( #39, 'UNSPECIFIED' ) ;
#101 = VECTOR ( 'NONE', #126, 1000.000000000000000 ) ;
#102 = FACE_OUTER_BOUND ( 'NONE', #76, .T. ) ;
#103 = ORIENTED_EDGE ( 'NONE', *, *, #72, .F. ) ;
#104 = CC_DESIGN_PERSON_AND_ORGANIZATION_ASSIGNMENT ( #49, #99, ( #129 ) ) ;
#105 = CARTESIAN_POINT ( 'NONE',  ( 0.0000000000000000000, 0.0000000000000000000, 0.0000000000000000000 ) ) ;
#106 = EDGE_LOOP ( 'NONE', ( #88, #137, #73, #152 ) ) ;
#107 = CARTESIAN_POINT ( 'NONE',  ( 20.00000000000000000, 2.449293598294706500E-015, 4.000000000000000000 ) ) ;
#108 = CARTESIAN_POINT ( 'NONE',  ( 0.0000000000000000000, 0.0000000000000000000, 4.000000000000000000 ) ) ;
#109 = LOCAL_TIME ( 10, 51, 11.00000000000000000, #89 ) ;
#110 = APPROVAL_ROLE ( '' ) ;
#111 = ADVANCED_FACE ( 'NONE', ( #90 ), #27, .T. ) ;
#112 = APPROVAL_ROLE ( '' ) ;
#113 = APPROVAL ( #28, 'UNSPECIFIED' ) ;
#114 = PERSON_AND_ORGANIZATION ( #161, #147 ) ;
#115 = CIRCLE ( 'NONE', #167, 20.00000000000000000 ) ;
#116 = MANIFOLD_SOLID_BREP ( 'Extrude1', #121 ) ;
#117 = SECURITY_CLASSIFICATION ( '', '', #85 ) ;
#118 = PERSON_AND_ORGANIZATION ( #161, #147 ) ;
#119 = CARTESIAN_POINT ( 'NONE',  ( 20.00000000000000000, 2.449293598294706500E-015, 0.0000000000000000000 ) ) ;
#120 = LOCAL_TIME ( 10, 51, 11.00000000000000000, #1 ) ;
#121 = CLOSED_SHELL ( 'NONE', ( #111, #25, #98, #122 ) ) ;
#122 = ADVANCED_FACE ( 'NONE', ( #102 ), #65, .F. ) ;
#123 = DIRECTION ( 'NONE',  ( -0.0000000000000000000, -0.0000000000000000000, -1.000000000000000000 ) ) ;
#124 = DIRECTION ( 'NONE',  ( 1.000000000000000000, 0.0000000000000000000, 0.0000000000000000000 ) ) ;
#125 = CC_DESIGN_APPROVAL ( #113, ( #117 ) ) ;
#126 = DIRECTION ( 'NONE',  ( -0.0000000000000000000, -0.0000000000000000000, -1.000000000000000000 ) ) ;
#127 = CIRCLE ( 'NONE', #79, 20.00000000000000000 ) ;
#128 = CIRCLE ( 'NONE', #31, 20.00000000000000000 ) ;
#129 = PRODUCT_DEFINITION_FORMATION_WITH_SPECIFIED_SOURCE ( 'ANY', '', #159, .NOT_KNOWN. ) ;
#130 = DESIGN_CONTEXT ( 'detailed design', #41, 'design' ) ;
#131 = CALENDAR_DATE ( 2017, 1, 2 ) ;
#132 = ADVANCED_BREP_SHAPE_REPRESENTATION ( 'Web Model 84490', ( #116, #43 ), #38 ) ;
#133 = APPROVAL_DATE_TIME ( #154, #42 ) ;
#134 = PRODUCT_RELATED_PRODUCT_CATEGORY ( 'detail', '', ( #159 ) ) ;
#135 = VERTEX_POINT ( 'NONE', #119 ) ;
#136 = PERSON_AND_ORGANIZATION ( #161, #147 ) ;
#137 = ORIENTED_EDGE ( 'NONE', *, *, #35, .T. ) ;
#138 = DIRECTION ( 'NONE',  ( 0.0000000000000000000, 0.0000000000000000000, 1.000000000000000000 ) ) ;
#139 = DIRECTION ( 'NONE',  ( 1.000000000000000000, 0.0000000000000000000, 0.0000000000000000000 ) ) ;
#140 = CARTESIAN_POINT ( 'NONE',  ( -20.00000000000000000, 0.0000000000000000000, 4.000000000000000000 ) ) ;
#141 = APPROVAL_DATE_TIME ( #145, #113 ) ;
#142 = FACE_OUTER_BOUND ( 'NONE', #151, .T. ) ;
#143 = PERSON_AND_ORGANIZATION_ROLE ( 'creator' ) ;
#144 = APPLICATION_PROTOCOL_DEFINITION ( 'international standard', 'config_control_design', 1994, #93 ) ;
#145 = DATE_AND_TIME ( #75, #120 ) ;
#146 = EDGE_CURVE ( 'NONE', #11, #81, #173, .T. ) ;
#147 = ORGANIZATION ( 'UNSPECIFIED', 'UNSPECIFIED', '' ) ;
#148 = SHAPE_DEFINITION_REPRESENTATION ( #94, #132 ) ;
#149 = CARTESIAN_POINT ( 'NONE',  ( 0.0000000000000000000, 0.0000000000000000000, 4.000000000000000000 ) ) ;
#150 = PERSON_AND_ORGANIZATION ( #161, #147 ) ;
#151 = EDGE_LOOP ( 'NONE', ( #15, #103, #162, #2 ) ) ;
#152 = ORIENTED_EDGE ( 'NONE', *, *, #146, .F. ) ;
#153 = PLANE ( 'NONE',  #172 ) ;
#154 = DATE_AND_TIME ( #18, #52 ) ;
#155 = ORIENTED_EDGE ( 'NONE', *, *, #72, .T. ) ;
#156 =( NAMED_UNIT ( * ) PLANE_ANGLE_UNIT ( ) SI_UNIT ( $, .RADIAN. ) );
#157 = CC_DESIGN_APPROVAL ( #100, ( #32 ) ) ;
#158 = PERSON_AND_ORGANIZATION_ROLE ( 'design_owner' ) ;
#159 = PRODUCT ( 'Web Model 84490', 'Web Model 84490', '', ( #26 ) ) ;
#160 = APPROVAL_DATE_TIME ( #71, #100 ) ;
#161 = PERSON ( 'UNSPECIFIED', 'UNSPECIFIED', 'UNSPECIFIED', ('UNSPECIFIED'), ('UNSPECIFIED'), ('UNSPECIFIED') ) ;
#162 = ORIENTED_EDGE ( 'NONE', *, *, #146, .T. ) ;
#163 = PERSON_AND_ORGANIZATION ( #161, #147 ) ;
#164 = EDGE_CURVE ( 'NONE', #135, #81, #168, .T. ) ;
#165 = CARTESIAN_POINT ( 'NONE',  ( 0.0000000000000000000, 0.0000000000000000000, 4.000000000000000000 ) ) ;
#166 = CC_DESIGN_PERSON_AND_ORGANIZATION_ASSIGNMENT ( #150, #86, ( #117 ) ) ;
#167 = AXIS2_PLACEMENT_3D ( 'NONE', #149, #138, #58 ) ;
#168 = CIRCLE ( 'NONE', #69, 20.00000000000000000 ) ;
#169 = DATE_TIME_ROLE ( 'creation_date' ) ;
#170 = EDGE_CURVE ( 'NONE', #81, #135, #127, .T. ) ;
#171 = DIRECTION ( 'NONE',  ( 1.000000000000000000, 0.0000000000000000000, 0.0000000000000000000 ) ) ;
#172 = AXIS2_PLACEMENT_3D ( 'NONE', #95, #23, #84 ) ;
#173 = LINE ( 'NONE', #140, #19 ) ;
#174 = AXIS2_PLACEMENT_3D ( 'NONE', #108, #123, #46 ) ;
#175 = DIRECTION ( 'NONE',  ( 0.0000000000000000000, 0.0000000000000000000, 1.000000000000000000 ) ) ;
ENDSEC;
END-ISO-10303-21;
