ISO-10303-21;
HEADER;
FILE_DESCRIPTION (( 'STEP AP203' ),
    '1' );
FILE_NAME ('step_47123.step',
    '2014-06-12T17:57:43',
    ( '' ),
    ( '' ),
    'SwSTEP 2.0',
    'SolidWorks 2014',
    '' );
FILE_SCHEMA (( 'CONFIG_CONTROL_DESIGN' ));
ENDSEC;

DATA;
#1 = ADVANCED_FACE ( 'NONE', ( #311 ), #188, .F. ) ;
#2 = DIRECTION ( 'NONE',  ( 0.0000000000000000000, -0.0000000000000000000, 1.000000000000000000 ) ) ;
#3 = EDGE_LOOP ( 'NONE', ( #93, #136, #313 ) ) ;
#4 = LINE ( 'NONE', #272, #205 ) ;
#5 = PERSON_AND_ORGANIZATION_ROLE ( 'classification_officer' ) ;
#6 = CARTESIAN_POINT ( 'NONE',  ( -6.123233995736766300E-016, 10.00000000000000000, 10.00000000000000000 ) ) ;
#7 = ORIENTED_EDGE ( 'NONE', *, *, #87, .F. ) ;
#8 = AXIS2_PLACEMENT_3D ( 'NONE', #31, #13, #2 ) ;
#9 = SECURITY_CLASSIFICATION_LEVEL ( 'unclassified' ) ;
#10 = EDGE_LOOP ( 'NONE', ( #107, #230, #97 ) ) ;
#11 = LOCAL_TIME ( 10, 57, 43.00000000000000000, #18 ) ;
#12 = CARTESIAN_POINT ( 'NONE',  ( 10.00000000000000000, 0.0000000000000000000, 10.00000000000000000 ) ) ;
#13 = DIRECTION ( 'NONE',  ( 0.0000000000000000000, 1.000000000000000000, 0.0000000000000000000 ) ) ;
#14 = VERTEX_POINT ( 'NONE', #147 ) ;
#15 = PERSON_AND_ORGANIZATION_ROLE ( 'design_supplier' ) ;
#16 = PERSON_AND_ORGANIZATION_ROLE ( 'creator' ) ;
#17 = EDGE_LOOP ( 'NONE', ( #241, #308, #7, #222 ) ) ;
#18 = COORDINATED_UNIVERSAL_TIME_OFFSET ( 7, 0, .BEHIND. ) ;
#19 = DATE_AND_TIME ( #253, #320 ) ;
#20 = DIRECTION ( 'NONE',  ( -0.0000000000000000000, -0.0000000000000000000, -1.000000000000000000 ) ) ;
#21 =( GEOMETRIC_REPRESENTATION_CONTEXT ( 3 ) GLOBAL_UNCERTAINTY_ASSIGNED_CONTEXT ( ( #33 ) ) GLOBAL_UNIT_ASSIGNED_CONTEXT ( ( #81, #71, #66 ) ) REPRESENTATION_CONTEXT ( 'NONE', 'WORKASPACE' ) );
#22 = APPROVAL_ROLE ( '' ) ;
#23 = AXIS2_PLACEMENT_3D ( 'NONE', #221, #183, #169 ) ;
#24 = LOCAL_TIME ( 10, 57, 43.00000000000000000, #138 ) ;
#25 = CC_DESIGN_SECURITY_CLASSIFICATION ( #273, ( #310 ) ) ;
#26 = APPROVAL_STATUS ( 'not_yet_approved' ) ;
#27 = VERTEX_POINT ( 'NONE', #264 ) ;
#28 = ADVANCED_FACE ( 'NONE', ( #152 ), #195, .F. ) ;
#29 = ORIENTED_EDGE ( 'NONE', *, *, #137, .T. ) ;
#30 = DATE_TIME_ROLE ( 'creation_date' ) ;
#31 = CARTESIAN_POINT ( 'NONE',  ( 0.0000000000000000000, 0.0000000000000000000, 10.00000000000000000 ) ) ;
#32 = DATE_AND_TIME ( #175, #115 ) ;
#33 = UNCERTAINTY_MEASURE_WITH_UNIT (LENGTH_MEASURE( 1.000000000000000100E-005 ), #81, 'distance_accuracy_value', 'NONE');
#34 = PERSON_AND_ORGANIZATION_ROLE ( 'creator' ) ;
#35 = AXIS2_PLACEMENT_3D ( 'NONE', #206, #197, #201 ) ;
#36 = APPROVAL_ROLE ( '' ) ;
#37 = APPROVAL_STATUS ( 'not_yet_approved' ) ;
#38 = ORIENTED_EDGE ( 'NONE', *, *, #172, .T. ) ;
#39 = VERTEX_POINT ( 'NONE', #139 ) ;
#40 = ORIENTED_EDGE ( 'NONE', *, *, #98, .F. ) ;
#41 = AXIS2_PLACEMENT_3D ( 'NONE', #141, #124, #120 ) ;
#42 = APPLICATION_PROTOCOL_DEFINITION ( 'international standard', 'config_control_design', 1994, #45 ) ;
#43 = EDGE_CURVE ( 'NONE', #269, #219, #303, .T. ) ;
#44 = PERSON_AND_ORGANIZATION ( #217, #184 ) ;
#45 = APPLICATION_CONTEXT ( 'configuration controlled 3d designs of mechanical parts and assemblies' ) ;
#46 = PERSON_AND_ORGANIZATION_ROLE ( 'design_owner' ) ;
#47 = VERTEX_POINT ( 'NONE', #163 ) ;
#48 = CC_DESIGN_DATE_AND_TIME_ASSIGNMENT ( #57, #30, ( #255 ) ) ;
#49 = MECHANICAL_CONTEXT ( 'NONE', #60, 'mechanical' ) ;
#50 = ORIENTED_EDGE ( 'NONE', *, *, #43, .T. ) ;
#51 = DIRECTION ( 'NONE',  ( 1.000000000000000000, 0.0000000000000000000, 0.0000000000000000000 ) ) ;
#52 = FACE_OUTER_BOUND ( 'NONE', #258, .T. ) ;
#53 = DIRECTION ( 'NONE',  ( 0.0000000000000000000, 0.0000000000000000000, 1.000000000000000000 ) ) ;
#54 = EDGE_CURVE ( 'NONE', #234, #39, #164, .T. ) ;
#55 = PLANE ( 'NONE',  #8 ) ;
#56 = VECTOR ( 'NONE', #285, 1000.000000000000000 ) ;
#57 = DATE_AND_TIME ( #121, #24 ) ;
#58 = ADVANCED_FACE ( 'NONE', ( #143 ), #55, .F. ) ;
#59 = ADVANCED_BREP_SHAPE_REPRESENTATION ( 'step_47123', ( #235, #266, #318 ), #21 ) ;
#60 = APPLICATION_CONTEXT ( 'configuration controlled 3d designs of mechanical parts and assemblies' ) ;
#61 = EDGE_CURVE ( 'NONE', #14, #27, #289, .T. ) ;
#62 = APPLICATION_PROTOCOL_DEFINITION ( 'international standard', 'config_control_design', 1994, #60 ) ;
#63 = DIRECTION ( 'NONE',  ( 1.000000000000000000, 0.0000000000000000000, 0.0000000000000000000 ) ) ;
#64 = CLOSED_SHELL ( 'NONE', ( #140, #28, #58, #210, #256 ) ) ;
#65 = EDGE_CURVE ( 'NONE', #39, #219, #133, .T. ) ;
#66 =( NAMED_UNIT ( * ) SI_UNIT ( $, .STERADIAN. ) SOLID_ANGLE_UNIT ( ) );
#67 = VECTOR ( 'NONE', #154, 1000.000000000000100 ) ;
#68 = APPROVAL ( #26, 'UNSPECIFIED' ) ;
#69 = EDGE_LOOP ( 'NONE', ( #248, #288, #284, #249 ) ) ;
#70 = EDGE_CURVE ( 'NONE', #270, #295, #158, .T. ) ;
#71 =( NAMED_UNIT ( * ) PLANE_ANGLE_UNIT ( ) SI_UNIT ( $, .RADIAN. ) );
#72 = FACE_OUTER_BOUND ( 'NONE', #3, .T. ) ;
#73 = ORIENTED_EDGE ( 'NONE', *, *, #87, .T. ) ;
#74 = ORIENTED_EDGE ( 'NONE', *, *, #187, .T. ) ;
#75 = CC_DESIGN_APPROVAL ( #68, ( #310 ) ) ;
#76 = EDGE_CURVE ( 'NONE', #219, #27, #132, .T. ) ;
#77 = DESIGN_CONTEXT ( 'detailed design', #45, 'design' ) ;
#78 = CARTESIAN_POINT ( 'NONE',  ( 0.0000000000000000000, 0.0000000000000000000, 10.00000000000000000 ) ) ;
#79 = ORIENTED_EDGE ( 'NONE', *, *, #104, .T. ) ;
#80 = CC_DESIGN_PERSON_AND_ORGANIZATION_ASSIGNMENT ( #224, #15, ( #310 ) ) ;
#81 =( LENGTH_UNIT ( ) NAMED_UNIT ( * ) SI_UNIT ( .MILLI., .METRE. ) );
#82 = DIRECTION ( 'NONE',  ( -0.7071067811865474600, 0.7071067811865474600, 0.0000000000000000000 ) ) ;
#83 = EDGE_CURVE ( 'NONE', #47, #295, #95, .T. ) ;
#84 = AXIS2_PLACEMENT_3D ( 'NONE', #228, #223, #216 ) ;
#85 = VECTOR ( 'NONE', #294, 1000.000000000000000 ) ;
#86 = DIRECTION ( 'NONE',  ( 0.7071067811865475700, 0.7071067811865475700, -0.0000000000000000000 ) ) ;
#87 = EDGE_CURVE ( 'NONE', #130, #270, #128, .T. ) ;
#88 = CARTESIAN_POINT ( 'NONE',  ( -6.123233995736766300E-016, 10.00000000000000000, 10.00000000000000000 ) ) ;
#89 = COORDINATED_UNIVERSAL_TIME_OFFSET ( 7, 0, .BEHIND. ) ;
#90 = CARTESIAN_POINT ( 'NONE',  ( 0.0000000000000000000, 0.0000000000000000000, 0.0000000000000000000 ) ) ;
#91 = APPROVAL_PERSON_ORGANIZATION ( #185, #276, #36 ) ;
#92 = CARTESIAN_POINT ( 'NONE',  ( -6.123233995736766300E-016, 10.00000000000000000, 0.0000000000000000000 ) ) ;
#93 = ORIENTED_EDGE ( 'NONE', *, *, #76, .F. ) ;
#94 = VECTOR ( 'NONE', #307, 1000.000000000000100 ) ;
#95 = LINE ( 'NONE', #298, #85 ) ;
#96 = CARTESIAN_POINT ( 'NONE',  ( 0.0000000000000000000, 0.0000000000000000000, 0.0000000000000000000 ) ) ;
#97 = ORIENTED_EDGE ( 'NONE', *, *, #104, .F. ) ;
#98 = EDGE_CURVE ( 'NONE', #130, #47, #231, .T. ) ;
#99 = CARTESIAN_POINT ( 'NONE',  ( -6.123233995736766300E-016, 10.00000000000000000, 10.00000000000000000 ) ) ;
#100 = APPROVAL_ROLE ( '' ) ;
#101 = DIRECTION ( 'NONE',  ( 1.000000000000000000, 0.0000000000000000000, -0.0000000000000000000 ) ) ;
#102 = EDGE_CURVE ( 'NONE', #234, #269, #4, .T. ) ;
#103 = AXIS2_PLACEMENT_3D ( 'NONE', #153, #145, #144 ) ;
#104 = EDGE_CURVE ( 'NONE', #295, #151, #209, .T. ) ;
#105 = PERSON_AND_ORGANIZATION ( #217, #184 ) ;
#106 = VECTOR ( 'NONE', #157, 1000.000000000000000 ) ;
#107 = ORIENTED_EDGE ( 'NONE', *, *, #83, .F. ) ;
#108 = PLANE ( 'NONE',  #127 ) ;
#109 = ADVANCED_FACE ( 'NONE', ( #243 ), #259, .F. ) ;
#110 = VECTOR ( 'NONE', #161, 1000.000000000000000 ) ;
#111 = ORIENTED_EDGE ( 'NONE', *, *, #70, .T. ) ;
#112 = CARTESIAN_POINT ( 'NONE',  ( 10.00000000000000000, 0.0000000000000000000, 10.00000000000000000 ) ) ;
#113 = DATE_TIME_ROLE ( 'classification_date' ) ;
#114 = PLANE ( 'NONE',  #160 ) ;
#115 = LOCAL_TIME ( 10, 57, 43.00000000000000000, #89 ) ;
#116 = CC_DESIGN_APPROVAL ( #276, ( #255 ) ) ;
#117 = LINE ( 'NONE', #156, #67 ) ;
#118 = CC_DESIGN_PERSON_AND_ORGANIZATION_ASSIGNMENT ( #119, #16, ( #310 ) ) ;
#119 = PERSON_AND_ORGANIZATION ( #217, #184 ) ;
#120 = DIRECTION ( 'NONE',  ( 0.0000000000000000000, 0.0000000000000000000, 1.000000000000000000 ) ) ;
#121 = CALENDAR_DATE ( 2014, 12, 6 ) ;
#122 = PRODUCT_RELATED_PRODUCT_CATEGORY ( 'detail', '', ( #174 ) ) ;
#123 = ORIENTED_EDGE ( 'NONE', *, *, #65, .F. ) ;
#124 = DIRECTION ( 'NONE',  ( -1.000000000000000000, 0.0000000000000000000, 0.0000000000000000000 ) ) ;
#125 = EDGE_LOOP ( 'NONE', ( #73, #305, #274 ) ) ;
#126 = PLANE ( 'NONE',  #41 ) ;
#127 = AXIS2_PLACEMENT_3D ( 'NONE', #88, #86, #82 ) ;
#128 = LINE ( 'NONE', #299, #56 ) ;
#129 = CARTESIAN_POINT ( 'NONE',  ( 10.00000000000000000, 0.0000000000000000000, 0.0000000000000000000 ) ) ;
#130 = VERTEX_POINT ( 'NONE', #239 ) ;
#131 = EDGE_CURVE ( 'NONE', #27, #269, #180, .T. ) ;
#132 = LINE ( 'NONE', #304, #94 ) ;
#133 = LINE ( 'NONE', #12, #279 ) ;
#134 = CARTESIAN_POINT ( 'NONE',  ( 0.0000000000000000000, 0.0000000000000000000, 0.0000000000000000000 ) ) ;
#135 = VECTOR ( 'NONE', #168, 1000.000000000000000 ) ;
#136 = ORIENTED_EDGE ( 'NONE', *, *, #43, .F. ) ;
#137 = EDGE_CURVE ( 'NONE', #265, #151, #170, .T. ) ;
#138 = COORDINATED_UNIVERSAL_TIME_OFFSET ( 7, 0, .BEHIND. ) ;
#139 = CARTESIAN_POINT ( 'NONE',  ( 10.00000000000000000, 0.0000000000000000000, 10.00000000000000000 ) ) ;
#140 = ADVANCED_FACE ( 'NONE', ( #321 ), #232, .F. ) ;
#141 = CARTESIAN_POINT ( 'NONE',  ( 10.00000000000000000, 0.0000000000000000000, 10.00000000000000000 ) ) ;
#142 = CC_DESIGN_APPROVAL ( #302, ( #273 ) ) ;
#143 = FACE_OUTER_BOUND ( 'NONE', #212, .T. ) ;
#144 = DIRECTION ( 'NONE',  ( 1.000000000000000000, 0.0000000000000000000, -0.0000000000000000000 ) ) ;
#145 = DIRECTION ( 'NONE',  ( 0.0000000000000000000, 0.0000000000000000000, 1.000000000000000000 ) ) ;
#146 = FACE_OUTER_BOUND ( 'NONE', #10, .T. ) ;
#147 = CARTESIAN_POINT ( 'NONE',  ( -6.123233995736766300E-016, 10.00000000000000000, 10.00000000000000000 ) ) ;
#148 = DIRECTION ( 'NONE',  ( 0.0000000000000000000, 0.0000000000000000000, 1.000000000000000000 ) ) ;
#149 = AXIS2_PLACEMENT_3D ( 'NONE', #202, #194, #190 ) ;
#150 = FACE_OUTER_BOUND ( 'NONE', #267, .T. ) ;
#151 = VERTEX_POINT ( 'NONE', #238 ) ;
#152 = FACE_OUTER_BOUND ( 'NONE', #69, .T. ) ;
#153 = CARTESIAN_POINT ( 'NONE',  ( 0.0000000000000000000, 0.0000000000000000000, 10.00000000000000000 ) ) ;
#154 = DIRECTION ( 'NONE',  ( -0.7071067811865474600, 0.7071067811865474600, 0.0000000000000000000 ) ) ;
#155 = PLANE ( 'NONE',  #103 ) ;
#156 = CARTESIAN_POINT ( 'NONE',  ( 10.00000000000000000, 0.0000000000000000000, 10.00000000000000000 ) ) ;
#157 = DIRECTION ( 'NONE',  ( 6.123233995736766000E-017, -1.000000000000000000, 0.0000000000000000000 ) ) ;
#158 = LINE ( 'NONE', #6, #278 ) ;
#159 = CARTESIAN_POINT ( 'NONE',  ( -6.123233995736766300E-016, 10.00000000000000000, 10.00000000000000000 ) ) ;
#160 = AXIS2_PLACEMENT_3D ( 'NONE', #134, #148, #101 ) ;
#161 = DIRECTION ( 'NONE',  ( 0.0000000000000000000, 1.000000000000000000, 0.0000000000000000000 ) ) ;
#162 = ADVANCED_FACE ( 'NONE', ( #146 ), #207, .T. ) ;
#163 = CARTESIAN_POINT ( 'NONE',  ( 10.00000000000000000, 10.00000000000000000, 0.0000000000000000000 ) ) ;
#164 = LINE ( 'NONE', #78, #290 ) ;
#165 = LINE ( 'NONE', #177, #292 ) ;
#166 = EDGE_CURVE ( 'NONE', #270, #265, #165, .T. ) ;
#167 = CARTESIAN_POINT ( 'NONE',  ( 10.00000000000000000, 0.0000000000000000000, 10.00000000000000000 ) ) ;
#168 = DIRECTION ( 'NONE',  ( 0.0000000000000000000, 1.000000000000000000, 0.0000000000000000000 ) ) ;
#169 = DIRECTION ( 'NONE',  ( -6.123233995736766000E-017, 1.000000000000000000, 0.0000000000000000000 ) ) ;
#170 = LINE ( 'NONE', #233, #200 ) ;
#171 = DIRECTION ( 'NONE',  ( 0.7071067811865474600, -0.7071067811865474600, 0.0000000000000000000 ) ) ;
#172 = EDGE_CURVE ( 'NONE', #151, #47, #300, .T. ) ;
#173 = CLOSED_SHELL ( 'NONE', ( #109, #277, #236, #1, #162 ) ) ;
#174 = PRODUCT ( 'step_47123', 'step_47123', '', ( #49 ) ) ;
#175 = CALENDAR_DATE ( 2014, 12, 6 ) ;
#176 = CC_DESIGN_PERSON_AND_ORGANIZATION_ASSIGNMENT ( #44, #34, ( #255 ) ) ;
#177 = CARTESIAN_POINT ( 'NONE',  ( -6.123233995736766300E-016, 10.00000000000000000, 10.00000000000000000 ) ) ;
#178 = PERSON_AND_ORGANIZATION ( #217, #184 ) ;
#179 = APPROVAL_PERSON_ORGANIZATION ( #191, #68, #22 ) ;
#180 = LINE ( 'NONE', #240, #317 ) ;
#181 = CC_DESIGN_PERSON_AND_ORGANIZATION_ASSIGNMENT ( #316, #5, ( #273 ) ) ;
#182 = EDGE_CURVE ( 'NONE', #265, #130, #282, .T. ) ;
#183 = DIRECTION ( 'NONE',  ( 1.000000000000000000, 6.123233995736766000E-017, -0.0000000000000000000 ) ) ;
#184 = ORGANIZATION ( 'UNSPECIFIED', 'UNSPECIFIED', '' ) ;
#185 = PERSON_AND_ORGANIZATION ( #217, #184 ) ;
#186 = VECTOR ( 'NONE', #251, 1000.000000000000100 ) ;
#187 = EDGE_CURVE ( 'NONE', #14, #234, #275, .T. ) ;
#188 = PLANE ( 'NONE',  #35 ) ;
#189 = CARTESIAN_POINT ( 'NONE',  ( 0.0000000000000000000, 0.0000000000000000000, 10.00000000000000000 ) ) ;
#190 = DIRECTION ( 'NONE',  ( -1.000000000000000000, 0.0000000000000000000, -0.0000000000000000000 ) ) ;
#191 = PERSON_AND_ORGANIZATION ( #217, #184 ) ;
#192 = LOCAL_TIME ( 10, 57, 43.00000000000000000, #293 ) ;
#193 = EDGE_CURVE ( 'NONE', #39, #14, #117, .T. ) ;
#194 = DIRECTION ( 'NONE',  ( 0.0000000000000000000, 0.0000000000000000000, -1.000000000000000000 ) ) ;
#195 = PLANE ( 'NONE',  #23 ) ;
#196 = SHAPE_DEFINITION_REPRESENTATION ( #254, #59 ) ;
#197 = DIRECTION ( 'NONE',  ( 0.0000000000000000000, 0.0000000000000000000, -1.000000000000000000 ) ) ;
#198 = AXIS2_PLACEMENT_3D ( 'NONE', #250, #247, #246 ) ;
#199 = ORIENTED_EDGE ( 'NONE', *, *, #182, .F. ) ;
#200 = VECTOR ( 'NONE', #280, 1000.000000000000000 ) ;
#201 = DIRECTION ( 'NONE',  ( -1.000000000000000000, 0.0000000000000000000, -0.0000000000000000000 ) ) ;
#202 = CARTESIAN_POINT ( 'NONE',  ( 0.0000000000000000000, 0.0000000000000000000, 0.0000000000000000000 ) ) ;
#203 = APPROVAL_DATE_TIME ( #32, #68 ) ;
#204 = CARTESIAN_POINT ( 'NONE',  ( 10.00000000000000000, 0.0000000000000000000, 0.0000000000000000000 ) ) ;
#205 = VECTOR ( 'NONE', #271, 1000.000000000000000 ) ;
#206 = CARTESIAN_POINT ( 'NONE',  ( 0.0000000000000000000, 0.0000000000000000000, 10.00000000000000000 ) ) ;
#207 = PLANE ( 'NONE',  #149 ) ;
#208 = DATE_AND_TIME ( #260, #11 ) ;
#209 = LINE ( 'NONE', #261, #186 ) ;
#210 = ADVANCED_FACE ( 'NONE', ( #150 ), #155, .T. ) ;
#211 = CARTESIAN_POINT ( 'NONE',  ( 0.0000000000000000000, 0.0000000000000000000, 0.0000000000000000000 ) ) ;
#212 = EDGE_LOOP ( 'NONE', ( #50, #123, #218, #301 ) ) ;
#213 = APPROVAL_STATUS ( 'not_yet_approved' ) ;
#214 = CALENDAR_DATE ( 2014, 12, 6 ) ;
#215 = ORIENTED_EDGE ( 'NONE', *, *, #65, .T. ) ;
#216 = DIRECTION ( 'NONE',  ( 0.7071067811865474600, -0.7071067811865474600, 0.0000000000000000000 ) ) ;
#217 = PERSON ( 'UNSPECIFIED', 'UNSPECIFIED', 'UNSPECIFIED', ('UNSPECIFIED'), ('UNSPECIFIED'), ('UNSPECIFIED') ) ;
#218 = ORIENTED_EDGE ( 'NONE', *, *, #54, .F. ) ;
#219 = VERTEX_POINT ( 'NONE', #129 ) ;
#220 = VECTOR ( 'NONE', #286, 1000.000000000000000 ) ;
#221 = CARTESIAN_POINT ( 'NONE',  ( -6.123233995736766300E-016, 10.00000000000000000, 10.00000000000000000 ) ) ;
#222 = ORIENTED_EDGE ( 'NONE', *, *, #98, .T. ) ;
#223 = DIRECTION ( 'NONE',  ( -0.7071067811865475700, -0.7071067811865475700, 0.0000000000000000000 ) ) ;
#224 = PERSON_AND_ORGANIZATION ( #217, #184 ) ;
#225 = APPROVAL_DATE_TIME ( #297, #276 ) ;
#226 = ORIENTED_EDGE ( 'NONE', *, *, #193, .F. ) ;
#227 = ORIENTED_EDGE ( 'NONE', *, *, #76, .T. ) ;
#228 = CARTESIAN_POINT ( 'NONE',  ( 10.00000000000000000, 0.0000000000000000000, 10.00000000000000000 ) ) ;
#229 = EDGE_LOOP ( 'NONE', ( #227, #257, #226, #215 ) ) ;
#230 = ORIENTED_EDGE ( 'NONE', *, *, #172, .F. ) ;
#231 = LINE ( 'NONE', #283, #220 ) ;
#232 = PLANE ( 'NONE',  #84 ) ;
#233 = CARTESIAN_POINT ( 'NONE',  ( 10.00000000000000000, 0.0000000000000000000, 10.00000000000000000 ) ) ;
#234 = VERTEX_POINT ( 'NONE', #189 ) ;
#235 = MANIFOLD_SOLID_BREP ( 'Boss-Extrude1', #64 ) ;
#236 = ADVANCED_FACE ( 'NONE', ( #52 ), #126, .F. ) ;
#237 = DIRECTION ( 'NONE',  ( 6.123233995736766000E-017, -1.000000000000000000, 0.0000000000000000000 ) ) ;
#238 = CARTESIAN_POINT ( 'NONE',  ( 10.00000000000000000, 0.0000000000000000000, 0.0000000000000000000 ) ) ;
#239 = CARTESIAN_POINT ( 'NONE',  ( 10.00000000000000000, 10.00000000000000000, 10.00000000000000000 ) ) ;
#240 = CARTESIAN_POINT ( 'NONE',  ( -6.123233995736766300E-016, 10.00000000000000000, 0.0000000000000000000 ) ) ;
#241 = ORIENTED_EDGE ( 'NONE', *, *, #83, .T. ) ;
#242 = ORIENTED_EDGE ( 'NONE', *, *, #137, .F. ) ;
#243 = FACE_OUTER_BOUND ( 'NONE', #17, .T. ) ;
#244 = DIRECTION ( 'NONE',  ( 1.000000000000000000, 0.0000000000000000000, 0.0000000000000000000 ) ) ;
#245 = APPROVAL_PERSON_ORGANIZATION ( #105, #302, #100 ) ;
#246 = DIRECTION ( 'NONE',  ( 0.0000000000000000000, -0.0000000000000000000, -1.000000000000000000 ) ) ;
#247 = DIRECTION ( 'NONE',  ( 0.0000000000000000000, -1.000000000000000000, 0.0000000000000000000 ) ) ;
#248 = ORIENTED_EDGE ( 'NONE', *, *, #131, .T. ) ;
#249 = ORIENTED_EDGE ( 'NONE', *, *, #61, .T. ) ;
#250 = CARTESIAN_POINT ( 'NONE',  ( 10.00000000000000000, 10.00000000000000000, 10.00000000000000000 ) ) ;
#251 = DIRECTION ( 'NONE',  ( 0.7071067811865474600, -0.7071067811865474600, 0.0000000000000000000 ) ) ;
#252 = EDGE_LOOP ( 'NONE', ( #79, #242, #262, #111 ) ) ;
#253 = CALENDAR_DATE ( 2014, 12, 6 ) ;
#254 = PRODUCT_DEFINITION_SHAPE ( 'NONE', 'NONE',  #255 ) ;
#255 = PRODUCT_DEFINITION ( 'UNKNOWN', '', #310, #77 ) ;
#256 = ADVANCED_FACE ( 'NONE', ( #72 ), #114, .F. ) ;
#257 = ORIENTED_EDGE ( 'NONE', *, *, #61, .F. ) ;
#258 = EDGE_LOOP ( 'NONE', ( #38, #40, #199, #29 ) ) ;
#259 = PLANE ( 'NONE',  #198 ) ;
#260 = CALENDAR_DATE ( 2014, 12, 6 ) ;
#261 = CARTESIAN_POINT ( 'NONE',  ( -6.123233995736766300E-016, 10.00000000000000000, 0.0000000000000000000 ) ) ;
#262 = ORIENTED_EDGE ( 'NONE', *, *, #166, .F. ) ;
#263 = ORIENTED_EDGE ( 'NONE', *, *, #193, .T. ) ;
#264 = CARTESIAN_POINT ( 'NONE',  ( -6.123233995736766300E-016, 10.00000000000000000, 0.0000000000000000000 ) ) ;
#265 = VERTEX_POINT ( 'NONE', #112 ) ;
#266 = MANIFOLD_SOLID_BREP ( 'Boss-Extrude2', #173 ) ;
#267 = EDGE_LOOP ( 'NONE', ( #263, #74, #287 ) ) ;
#268 = FACE_OUTER_BOUND ( 'NONE', #252, .T. ) ;
#269 = VERTEX_POINT ( 'NONE', #96 ) ;
#270 = VERTEX_POINT ( 'NONE', #99 ) ;
#271 = DIRECTION ( 'NONE',  ( -0.0000000000000000000, -0.0000000000000000000, -1.000000000000000000 ) ) ;
#272 = CARTESIAN_POINT ( 'NONE',  ( 0.0000000000000000000, 0.0000000000000000000, 10.00000000000000000 ) ) ;
#273 = SECURITY_CLASSIFICATION ( '', '', #9 ) ;
#274 = ORIENTED_EDGE ( 'NONE', *, *, #182, .T. ) ;
#275 = LINE ( 'NONE', #159, #106 ) ;
#276 = APPROVAL ( #37, 'UNSPECIFIED' ) ;
#277 = ADVANCED_FACE ( 'NONE', ( #268 ), #108, .F. ) ;
#278 = VECTOR ( 'NONE', #306, 1000.000000000000000 ) ;
#279 = VECTOR ( 'NONE', #20, 1000.000000000000000 ) ;
#280 = DIRECTION ( 'NONE',  ( -0.0000000000000000000, -0.0000000000000000000, -1.000000000000000000 ) ) ;
#281 = CC_DESIGN_PERSON_AND_ORGANIZATION_ASSIGNMENT ( #178, #46, ( #174 ) ) ;
#282 = LINE ( 'NONE', #167, #110 ) ;
#283 = CARTESIAN_POINT ( 'NONE',  ( 10.00000000000000000, 10.00000000000000000, 10.00000000000000000 ) ) ;
#284 = ORIENTED_EDGE ( 'NONE', *, *, #187, .F. ) ;
#285 = DIRECTION ( 'NONE',  ( -1.000000000000000000, 0.0000000000000000000, 0.0000000000000000000 ) ) ;
#286 = DIRECTION ( 'NONE',  ( -0.0000000000000000000, -0.0000000000000000000, -1.000000000000000000 ) ) ;
#287 = ORIENTED_EDGE ( 'NONE', *, *, #54, .T. ) ;
#288 = ORIENTED_EDGE ( 'NONE', *, *, #102, .F. ) ;
#289 = LINE ( 'NONE', #319, #309 ) ;
#290 = VECTOR ( 'NONE', #63, 1000.000000000000000 ) ;
#291 = APPROVAL_DATE_TIME ( #208, #302 ) ;
#292 = VECTOR ( 'NONE', #171, 1000.000000000000100 ) ;
#293 = COORDINATED_UNIVERSAL_TIME_OFFSET ( 7, 0, .BEHIND. ) ;
#294 = DIRECTION ( 'NONE',  ( -1.000000000000000000, 0.0000000000000000000, 0.0000000000000000000 ) ) ;
#295 = VERTEX_POINT ( 'NONE', #92 ) ;
#296 = VECTOR ( 'NONE', #244, 1000.000000000000000 ) ;
#297 = DATE_AND_TIME ( #214, #192 ) ;
#298 = CARTESIAN_POINT ( 'NONE',  ( 10.00000000000000000, 10.00000000000000000, 0.0000000000000000000 ) ) ;
#299 = CARTESIAN_POINT ( 'NONE',  ( 10.00000000000000000, 10.00000000000000000, 10.00000000000000000 ) ) ;
#300 = LINE ( 'NONE', #204, #135 ) ;
#301 = ORIENTED_EDGE ( 'NONE', *, *, #102, .T. ) ;
#302 = APPROVAL ( #213, 'UNSPECIFIED' ) ;
#303 = LINE ( 'NONE', #211, #296 ) ;
#304 = CARTESIAN_POINT ( 'NONE',  ( 10.00000000000000000, 0.0000000000000000000, 0.0000000000000000000 ) ) ;
#305 = ORIENTED_EDGE ( 'NONE', *, *, #166, .T. ) ;
#306 = DIRECTION ( 'NONE',  ( -0.0000000000000000000, -0.0000000000000000000, -1.000000000000000000 ) ) ;
#307 = DIRECTION ( 'NONE',  ( -0.7071067811865474600, 0.7071067811865474600, 0.0000000000000000000 ) ) ;
#308 = ORIENTED_EDGE ( 'NONE', *, *, #70, .F. ) ;
#309 = VECTOR ( 'NONE', #312, 1000.000000000000000 ) ;
#310 = PRODUCT_DEFINITION_FORMATION_WITH_SPECIFIED_SOURCE ( 'ANY', '', #174, .NOT_KNOWN. ) ;
#311 = FACE_OUTER_BOUND ( 'NONE', #125, .T. ) ;
#312 = DIRECTION ( 'NONE',  ( -0.0000000000000000000, -0.0000000000000000000, -1.000000000000000000 ) ) ;
#313 = ORIENTED_EDGE ( 'NONE', *, *, #131, .F. ) ;
#314 = COORDINATED_UNIVERSAL_TIME_OFFSET ( 7, 0, .BEHIND. ) ;
#315 = CC_DESIGN_DATE_AND_TIME_ASSIGNMENT ( #19, #113, ( #273 ) ) ;
#316 = PERSON_AND_ORGANIZATION ( #217, #184 ) ;
#317 = VECTOR ( 'NONE', #237, 1000.000000000000000 ) ;
#318 = AXIS2_PLACEMENT_3D ( 'NONE', #90, #53, #51 ) ;
#319 = CARTESIAN_POINT ( 'NONE',  ( -6.123233995736766300E-016, 10.00000000000000000, 10.00000000000000000 ) ) ;
#320 = LOCAL_TIME ( 10, 57, 43.00000000000000000, #314 ) ;
#321 = FACE_OUTER_BOUND ( 'NONE', #229, .T. ) ;
ENDSEC;
END-ISO-10303-21;
