ISO-10303-21;
HEADER;
FILE_DESCRIPTION (( 'STEP AP203' ),
    '1' );
FILE_NAME ('Web Model 63224.STEP',
    '2017-01-31T18:46:27',
    ( '' ),
    ( '' ),
    'SwSTEP 2.0',
    'SolidWorks 2016',
    '' );
FILE_SCHEMA (( 'CONFIG_CONTROL_DESIGN' ));
ENDSEC;

DATA;
#1 = PERSON_AND_ORGANIZATION_ROLE ( 'creator' ) ;
#2 = LINE ( 'NONE', #124, #49 ) ;
#3 = CC_DESIGN_PERSON_AND_ORGANIZATION_ASSIGNMENT ( #120, #104, ( #135 ) ) ;
#4 = AXIS2_PLACEMENT_3D ( 'NONE', #139, #40, #10 ) ;
#5 = PERSON_AND_ORGANIZATION ( #110, #14 ) ;
#6 = CARTESIAN_POINT ( 'NONE',  ( 0.0000000000000000000, 0.0000000000000000000, 1.600000000000000100 ) ) ;
#7 = EDGE_LOOP ( 'NONE', ( #163, #170, #109, #59 ) ) ;
#8 = PLANE ( 'NONE',  #164 ) ;
#9 =( NAMED_UNIT ( * ) SI_UNIT ( $, .STERADIAN. ) SOLID_ANGLE_UNIT ( ) );
#10 = DIRECTION ( 'NONE',  ( 1.000000000000000000, 0.0000000000000000000, 0.0000000000000000000 ) ) ;
#11 = CIRCLE ( 'NONE', #4, 6.250000000000000000 ) ;
#12 = ORIENTED_EDGE ( 'NONE', *, *, #81, .F. ) ;
#13 = APPROVAL_ROLE ( '' ) ;
#14 = ORGANIZATION ( 'UNSPECIFIED', 'UNSPECIFIED', '' ) ;
#15 = PRODUCT_DEFINITION ( 'UNKNOWN', '', #135, #48 ) ;
#16 = DIRECTION ( 'NONE',  ( 1.000000000000000000, 0.0000000000000000000, 0.0000000000000000000 ) ) ;
#17 = DIRECTION ( 'NONE',  ( 1.000000000000000000, 0.0000000000000000000, 0.0000000000000000000 ) ) ;
#18 = ORIENTED_EDGE ( 'NONE', *, *, #81, .T. ) ;
#19 = DIRECTION ( 'NONE',  ( 0.0000000000000000000, 0.0000000000000000000, 1.000000000000000000 ) ) ;
#20 = EDGE_CURVE ( 'NONE', #51, #112, #44, .T. ) ;
#21 = CARTESIAN_POINT ( 'NONE',  ( -6.250000000000000000, 0.0000000000000000000, 1.600000000000000100 ) ) ;
#22 = DATE_AND_TIME ( #158, #38 ) ;
#23 = APPROVAL ( #116, 'UNSPECIFIED' ) ;
#24 = AXIS2_PLACEMENT_3D ( 'NONE', #6, #150, #122 ) ;
#25 = COORDINATED_UNIVERSAL_TIME_OFFSET ( 5, 0, .BEHIND. ) ;
#26 = APPROVAL_ROLE ( '' ) ;
#27 = EDGE_LOOP ( 'NONE', ( #12, #77, #98, #46 ) ) ;
#28 = EDGE_CURVE ( 'NONE', #145, #35, #168, .T. ) ;
#29 = DIRECTION ( 'NONE',  ( 1.000000000000000000, 0.0000000000000000000, 0.0000000000000000000 ) ) ;
#30 = PERSON_AND_ORGANIZATION ( #110, #14 ) ;
#31 = CIRCLE ( 'NONE', #118, 6.250000000000000000 ) ;
#32 = AXIS2_PLACEMENT_3D ( 'NONE', #97, #171, #17 ) ;
#33 = CC_DESIGN_SECURITY_CLASSIFICATION ( #134, ( #135 ) ) ;
#34 = AXIS2_PLACEMENT_3D ( 'NONE', #165, #84, #53 ) ;
#35 = VERTEX_POINT ( 'NONE', #99 ) ;
#36 = EDGE_CURVE ( 'NONE', #35, #51, #2, .T. ) ;
#37 = DIRECTION ( 'NONE',  ( -0.0000000000000000000, -0.0000000000000000000, -1.000000000000000000 ) ) ;
#38 = LOCAL_TIME ( 13, 46, 27.00000000000000000, #159 ) ;
#39 = PERSON_AND_ORGANIZATION ( #110, #14 ) ;
#40 = DIRECTION ( 'NONE',  ( 0.0000000000000000000, 0.0000000000000000000, 1.000000000000000000 ) ) ;
#41 = MANIFOLD_SOLID_BREP ( 'Extrude1', #162 ) ;
#42 = MECHANICAL_CONTEXT ( 'NONE', #130, 'mechanical' ) ;
#43 = ADVANCED_BREP_SHAPE_REPRESENTATION ( 'Web Model 63224', ( #41, #82 ), #146 ) ;
#44 = CIRCLE ( 'NONE', #67, 6.250000000000000000 ) ;
#45 = LOCAL_TIME ( 13, 46, 27.00000000000000000, #173 ) ;
#46 = ORIENTED_EDGE ( 'NONE', *, *, #142, .F. ) ;
#47 = COORDINATED_UNIVERSAL_TIME_OFFSET ( 5, 0, .BEHIND. ) ;
#48 = DESIGN_CONTEXT ( 'detailed design', #60, 'design' ) ;
#49 = VECTOR ( 'NONE', #37, 1000.000000000000000 ) ;
#50 = CARTESIAN_POINT ( 'NONE',  ( 0.0000000000000000000, 0.0000000000000000000, 0.0000000000000000000 ) ) ;
#51 = VERTEX_POINT ( 'NONE', #52 ) ;
#52 = CARTESIAN_POINT ( 'NONE',  ( 6.250000000000000000, 7.654042494670957600E-016, 0.0000000000000000000 ) ) ;
#53 = DIRECTION ( 'NONE',  ( -1.000000000000000000, 0.0000000000000000000, 0.0000000000000000000 ) ) ;
#54 = CC_DESIGN_PERSON_AND_ORGANIZATION_ASSIGNMENT ( #5, #87, ( #15 ) ) ;
#55 = CARTESIAN_POINT ( 'NONE',  ( 0.0000000000000000000, 0.0000000000000000000, 0.0000000000000000000 ) ) ;
#56 = CARTESIAN_POINT ( 'NONE',  ( 0.0000000000000000000, 0.0000000000000000000, 1.600000000000000100 ) ) ;
#57 = CALENDAR_DATE ( 2017, 31, 1 ) ;
#58 = EDGE_CURVE ( 'NONE', #112, #51, #31, .T. ) ;
#59 = ORIENTED_EDGE ( 'NONE', *, *, #58, .T. ) ;
#60 = APPLICATION_CONTEXT ( 'configuration controlled 3d designs of mechanical parts and assemblies' ) ;
#61 = ADVANCED_FACE ( 'NONE', ( #143 ), #137, .T. ) ;
#62 = ADVANCED_FACE ( 'NONE', ( #172 ), #123, .T. ) ;
#63 = ADVANCED_FACE ( 'NONE', ( #69 ), #8, .F. ) ;
#64 = APPROVAL_PERSON_ORGANIZATION ( #76, #23, #26 ) ;
#65 = CC_DESIGN_PERSON_AND_ORGANIZATION_ASSIGNMENT ( #78, #114, ( #134 ) ) ;
#66 = DIRECTION ( 'NONE',  ( 1.000000000000000000, 0.0000000000000000000, 0.0000000000000000000 ) ) ;
#67 = AXIS2_PLACEMENT_3D ( 'NONE', #50, #147, #66 ) ;
#68 = PRODUCT ( 'Web Model 63224', 'Web Model 63224', '', ( #42 ) ) ;
#69 = FACE_OUTER_BOUND ( 'NONE', #140, .T. ) ;
#70 = DATE_AND_TIME ( #155, #108 ) ;
#71 = CARTESIAN_POINT ( 'NONE',  ( -6.250000000000000000, 0.0000000000000000000, 1.600000000000000100 ) ) ;
#72 = APPROVAL_ROLE ( '' ) ;
#73 = SECURITY_CLASSIFICATION_LEVEL ( 'unclassified' ) ;
#74 = APPROVAL_STATUS ( 'not_yet_approved' ) ;
#75 = ADVANCED_FACE ( 'NONE', ( #119 ), #160, .T. ) ;
#76 = PERSON_AND_ORGANIZATION ( #110, #14 ) ;
#77 = ORIENTED_EDGE ( 'NONE', *, *, #36, .T. ) ;
#78 = PERSON_AND_ORGANIZATION ( #110, #14 ) ;
#79 = APPROVAL_DATE_TIME ( #92, #100 ) ;
#80 = CARTESIAN_POINT ( 'NONE',  ( 0.0000000000000000000, 0.0000000000000000000, 0.0000000000000000000 ) ) ;
#81 = EDGE_CURVE ( 'NONE', #35, #145, #11, .T. ) ;
#82 = AXIS2_PLACEMENT_3D ( 'NONE', #55, #141, #29 ) ;
#83 = DIRECTION ( 'NONE',  ( -1.000000000000000000, 0.0000000000000000000, 0.0000000000000000000 ) ) ;
#84 = DIRECTION ( 'NONE',  ( -0.0000000000000000000, -0.0000000000000000000, -1.000000000000000000 ) ) ;
#85 = APPROVAL_STATUS ( 'not_yet_approved' ) ;
#86 = LOCAL_TIME ( 13, 46, 27.00000000000000000, #47 ) ;
#87 = PERSON_AND_ORGANIZATION_ROLE ( 'creator' ) ;
#88 = APPROVAL_DATE_TIME ( #132, #95 ) ;
#89 = DATE_TIME_ROLE ( 'classification_date' ) ;
#90 = ORIENTED_EDGE ( 'NONE', *, *, #28, .T. ) ;
#91 = APPROVAL_PERSON_ORGANIZATION ( #39, #100, #72 ) ;
#92 = DATE_AND_TIME ( #57, #86 ) ;
#93 = ORIENTED_EDGE ( 'NONE', *, *, #58, .F. ) ;
#94 = SHAPE_DEFINITION_REPRESENTATION ( #96, #43 ) ;
#95 = APPROVAL ( #85, 'UNSPECIFIED' ) ;
#96 = PRODUCT_DEFINITION_SHAPE ( 'NONE', 'NONE',  #15 ) ;
#97 = CARTESIAN_POINT ( 'NONE',  ( 0.0000000000000000000, 0.0000000000000000000, 1.600000000000000100 ) ) ;
#98 = ORIENTED_EDGE ( 'NONE', *, *, #20, .T. ) ;
#99 = CARTESIAN_POINT ( 'NONE',  ( 6.250000000000000000, 7.654042494670957600E-016, 1.600000000000000100 ) ) ;
#100 = APPROVAL ( #74, 'UNSPECIFIED' ) ;
#101 = DIRECTION ( 'NONE',  ( 0.0000000000000000000, 0.0000000000000000000, 1.000000000000000000 ) ) ;
#102 = LOCAL_TIME ( 13, 46, 27.00000000000000000, #136 ) ;
#103 = DIRECTION ( 'NONE',  ( 1.000000000000000000, 0.0000000000000000000, -0.0000000000000000000 ) ) ;
#104 = PERSON_AND_ORGANIZATION_ROLE ( 'design_supplier' ) ;
#105 = EDGE_LOOP ( 'NONE', ( #90, #18 ) ) ;
#106 = APPLICATION_PROTOCOL_DEFINITION ( 'international standard', 'config_control_design', 1994, #130 ) ;
#107 = CC_DESIGN_PERSON_AND_ORGANIZATION_ASSIGNMENT ( #111, #1, ( #135 ) ) ;
#108 = LOCAL_TIME ( 13, 46, 27.00000000000000000, #25 ) ;
#109 = ORIENTED_EDGE ( 'NONE', *, *, #142, .T. ) ;
#110 = PERSON ( 'UNSPECIFIED', 'UNSPECIFIED', 'UNSPECIFIED', ('UNSPECIFIED'), ('UNSPECIFIED'), ('UNSPECIFIED') ) ;
#111 = PERSON_AND_ORGANIZATION ( #110, #14 ) ;
#112 = VERTEX_POINT ( 'NONE', #113 ) ;
#113 = CARTESIAN_POINT ( 'NONE',  ( -6.250000000000000000, 0.0000000000000000000, 0.0000000000000000000 ) ) ;
#114 = PERSON_AND_ORGANIZATION_ROLE ( 'classification_officer' ) ;
#115 = VECTOR ( 'NONE', #175, 1000.000000000000000 ) ;
#116 = APPROVAL_STATUS ( 'not_yet_approved' ) ;
#117 = CC_DESIGN_PERSON_AND_ORGANIZATION_ASSIGNMENT ( #126, #156, ( #68 ) ) ;
#118 = AXIS2_PLACEMENT_3D ( 'NONE', #80, #19, #16 ) ;
#119 = FACE_OUTER_BOUND ( 'NONE', #27, .T. ) ;
#120 = PERSON_AND_ORGANIZATION ( #110, #14 ) ;
#121 = AXIS2_PLACEMENT_3D ( 'NONE', #56, #153, #83 ) ;
#122 = DIRECTION ( 'NONE',  ( 1.000000000000000000, 0.0000000000000000000, -0.0000000000000000000 ) ) ;
#123 = CYLINDRICAL_SURFACE ( 'NONE', #121, 6.250000000000000000 ) ;
#124 = CARTESIAN_POINT ( 'NONE',  ( 6.250000000000000000, 7.654042494670957600E-016, 1.600000000000000100 ) ) ;
#125 = CC_DESIGN_APPROVAL ( #100, ( #15 ) ) ;
#126 = PERSON_AND_ORGANIZATION ( #110, #14 ) ;
#127 =( LENGTH_UNIT ( ) NAMED_UNIT ( * ) SI_UNIT ( .MILLI., .METRE. ) );
#128 = CARTESIAN_POINT ( 'NONE',  ( 0.0000000000000000000, 0.0000000000000000000, 0.0000000000000000000 ) ) ;
#129 = UNCERTAINTY_MEASURE_WITH_UNIT (LENGTH_MEASURE( 1.000000000000000100E-005 ), #127, 'distance_accuracy_value', 'NONE');
#130 = APPLICATION_CONTEXT ( 'configuration controlled 3d designs of mechanical parts and assemblies' ) ;
#131 = ORIENTED_EDGE ( 'NONE', *, *, #20, .F. ) ;
#132 = DATE_AND_TIME ( #166, #102 ) ;
#133 = CALENDAR_DATE ( 2017, 31, 1 ) ;
#134 = SECURITY_CLASSIFICATION ( '', '', #73 ) ;
#135 = PRODUCT_DEFINITION_FORMATION_WITH_SPECIFIED_SOURCE ( 'ANY', '', #68, .NOT_KNOWN. ) ;
#136 = COORDINATED_UNIVERSAL_TIME_OFFSET ( 5, 0, .BEHIND. ) ;
#137 = PLANE ( 'NONE',  #24 ) ;
#138 = APPROVAL_DATE_TIME ( #22, #23 ) ;
#139 = CARTESIAN_POINT ( 'NONE',  ( 0.0000000000000000000, 0.0000000000000000000, 1.600000000000000100 ) ) ;
#140 = EDGE_LOOP ( 'NONE', ( #93, #131 ) ) ;
#141 = DIRECTION ( 'NONE',  ( 0.0000000000000000000, 0.0000000000000000000, 1.000000000000000000 ) ) ;
#142 = EDGE_CURVE ( 'NONE', #145, #112, #149, .T. ) ;
#143 = FACE_OUTER_BOUND ( 'NONE', #105, .T. ) ;
#144 = CC_DESIGN_APPROVAL ( #95, ( #135 ) ) ;
#145 = VERTEX_POINT ( 'NONE', #71 ) ;
#146 =( GEOMETRIC_REPRESENTATION_CONTEXT ( 3 ) GLOBAL_UNCERTAINTY_ASSIGNED_CONTEXT ( ( #129 ) ) GLOBAL_UNIT_ASSIGNED_CONTEXT ( ( #127, #152, #9 ) ) REPRESENTATION_CONTEXT ( 'NONE', 'WORKASPACE' ) );
#147 = DIRECTION ( 'NONE',  ( 0.0000000000000000000, 0.0000000000000000000, 1.000000000000000000 ) ) ;
#148 = CC_DESIGN_APPROVAL ( #23, ( #134 ) ) ;
#149 = LINE ( 'NONE', #21, #115 ) ;
#150 = DIRECTION ( 'NONE',  ( 0.0000000000000000000, 0.0000000000000000000, 1.000000000000000000 ) ) ;
#151 = CC_DESIGN_DATE_AND_TIME_ASSIGNMENT ( #167, #89, ( #134 ) ) ;
#152 =( NAMED_UNIT ( * ) PLANE_ANGLE_UNIT ( ) SI_UNIT ( $, .RADIAN. ) );
#153 = DIRECTION ( 'NONE',  ( -0.0000000000000000000, -0.0000000000000000000, -1.000000000000000000 ) ) ;
#154 = DATE_TIME_ROLE ( 'creation_date' ) ;
#155 = CALENDAR_DATE ( 2017, 31, 1 ) ;
#156 = PERSON_AND_ORGANIZATION_ROLE ( 'design_owner' ) ;
#157 = APPLICATION_PROTOCOL_DEFINITION ( 'international standard', 'config_control_design', 1994, #60 ) ;
#158 = CALENDAR_DATE ( 2017, 31, 1 ) ;
#159 = COORDINATED_UNIVERSAL_TIME_OFFSET ( 5, 0, .BEHIND. ) ;
#160 = CYLINDRICAL_SURFACE ( 'NONE', #34, 6.250000000000000000 ) ;
#161 = PRODUCT_RELATED_PRODUCT_CATEGORY ( 'detail', '', ( #68 ) ) ;
#162 = CLOSED_SHELL ( 'NONE', ( #75, #62, #61, #63 ) ) ;
#163 = ORIENTED_EDGE ( 'NONE', *, *, #36, .F. ) ;
#164 = AXIS2_PLACEMENT_3D ( 'NONE', #128, #101, #103 ) ;
#165 = CARTESIAN_POINT ( 'NONE',  ( 0.0000000000000000000, 0.0000000000000000000, 1.600000000000000100 ) ) ;
#166 = CALENDAR_DATE ( 2017, 31, 1 ) ;
#167 = DATE_AND_TIME ( #133, #45 ) ;
#168 = CIRCLE ( 'NONE', #32, 6.250000000000000000 ) ;
#169 = APPROVAL_PERSON_ORGANIZATION ( #30, #95, #13 ) ;
#170 = ORIENTED_EDGE ( 'NONE', *, *, #28, .F. ) ;
#171 = DIRECTION ( 'NONE',  ( 0.0000000000000000000, 0.0000000000000000000, 1.000000000000000000 ) ) ;
#172 = FACE_OUTER_BOUND ( 'NONE', #7, .T. ) ;
#173 = COORDINATED_UNIVERSAL_TIME_OFFSET ( 5, 0, .BEHIND. ) ;
#174 = CC_DESIGN_DATE_AND_TIME_ASSIGNMENT ( #70, #154, ( #15 ) ) ;
#175 = DIRECTION ( 'NONE',  ( -0.0000000000000000000, -0.0000000000000000000, -1.000000000000000000 ) ) ;
ENDSEC;
END-ISO-10303-21;
