ISO-10303-21;
HEADER;
FILE_DESCRIPTION (( 'STEP AP203' ),
    '1' );
FILE_NAME ('Web Model 18292_18293.step',
    '2021-06-30T19:34:19',
    ( '' ),
    ( '' ),
    'SwSTEP 2.0',
    'SolidWorks 2018',
    '' );
FILE_SCHEMA (( 'CONFIG_CONTROL_DESIGN' ));
ENDSEC;

DATA;
#1 = SECURITY_CLASSIFICATION ( '', '', #156 ) ;
#2 = DATE_TIME_ROLE ( 'creation_date' ) ;
#3 = LOCAL_TIME ( 15, 34, 19.00000000000000000, #111 ) ;
#4 = ORIENTED_EDGE ( 'NONE', *, *, #56, .F. ) ;
#5 = EDGE_LOOP ( 'NONE', ( #81, #146, #119, #105 ) ) ;
#6 = VERTEX_POINT ( 'NONE', #102 ) ;
#7 = ADVANCED_BREP_SHAPE_REPRESENTATION ( 'Web Model 18292_18293', ( #19, #152 ), #46 ) ;
#8 = EDGE_CURVE ( 'NONE', #96, #127, #61, .T. ) ;
#9 = DATE_AND_TIME ( #88, #3 ) ;
#10 = CC_DESIGN_PERSON_AND_ORGANIZATION_ASSIGNMENT ( #28, #149, ( #20 ) ) ;
#11 = COORDINATED_UNIVERSAL_TIME_OFFSET ( 5, 0, .BEHIND. ) ;
#12 = CIRCLE ( 'NONE', #131, 12.50000000000000000 ) ;
#13 = VECTOR ( 'NONE', #42, 1000.000000000000000 ) ;
#14 = DIRECTION ( 'NONE',  ( 1.000000000000000000, 0.000000000000000000, 0.000000000000000000 ) ) ;
#15 = CALENDAR_DATE ( 2021, 30, 6 ) ;
#16 = DIRECTION ( 'NONE',  ( 0.000000000000000000, 0.000000000000000000, 1.000000000000000000 ) ) ;
#17 = CIRCLE ( 'NONE', #142, 12.50000000000000000 ) ;
#18 = CARTESIAN_POINT ( 'NONE',  ( -12.50000000000000000, 0.000000000000000000, 0.000000000000000000 ) ) ;
#19 = MANIFOLD_SOLID_BREP ( 'Boss-Extrude1', #80 ) ;
#20 = PRODUCT_DEFINITION_FORMATION_WITH_SPECIFIED_SOURCE ( 'ANY', '', #133, .NOT_KNOWN. ) ;
#21 = CALENDAR_DATE ( 2021, 30, 6 ) ;
#22 = CYLINDRICAL_SURFACE ( 'NONE', #87, 12.50000000000000000 ) ;
#23 = FACE_OUTER_BOUND ( 'NONE', #5, .T. ) ;
#24 = CARTESIAN_POINT ( 'NONE',  ( -12.50000000000000000, 0.000000000000000000, 0.6999999999999999556 ) ) ;
#25 = DIRECTION ( 'NONE',  ( -0.000000000000000000, -0.000000000000000000, -1.000000000000000000 ) ) ;
#26 = CC_DESIGN_DATE_AND_TIME_ASSIGNMENT ( #9, #49, ( #1 ) ) ;
#27 = APPROVAL_DATE_TIME ( #130, #65 ) ;
#28 = PERSON_AND_ORGANIZATION ( #44, #66 ) ;
#29 = CARTESIAN_POINT ( 'NONE',  ( 0.000000000000000000, 0.000000000000000000, 0.6999999999999999556 ) ) ;
#30 = CC_DESIGN_APPROVAL ( #65, ( #1 ) ) ;
#31 = PERSON_AND_ORGANIZATION_ROLE ( 'creator' ) ;
#32 = DIRECTION ( 'NONE',  ( 0.000000000000000000, 0.000000000000000000, 1.000000000000000000 ) ) ;
#33 = COORDINATED_UNIVERSAL_TIME_OFFSET ( 5, 0, .BEHIND. ) ;
#34 = APPLICATION_PROTOCOL_DEFINITION ( 'international standard', 'config_control_design', 1994, #54 ) ;
#35 = PERSON_AND_ORGANIZATION_ROLE ( 'classification_officer' ) ;
#36 = CARTESIAN_POINT ( 'NONE',  ( 0.000000000000000000, 0.000000000000000000, 0.000000000000000000 ) ) ;
#37 = CIRCLE ( 'NONE', #154, 12.50000000000000000 ) ;
#38 = CC_DESIGN_PERSON_AND_ORGANIZATION_ASSIGNMENT ( #140, #132, ( #20 ) ) ;
#39 = APPROVAL_PERSON_ORGANIZATION ( #98, #52, #69 ) ;
#40 = DIRECTION ( 'NONE',  ( 1.000000000000000000, 0.000000000000000000, -0.000000000000000000 ) ) ;
#41 = CARTESIAN_POINT ( 'NONE',  ( 12.50000000000000000, 1.530808498934191521E-15, 0.6999999999999999556 ) ) ;
#42 = DIRECTION ( 'NONE',  ( -0.000000000000000000, -0.000000000000000000, -1.000000000000000000 ) ) ;
#43 = PERSON_AND_ORGANIZATION ( #44, #66 ) ;
#44 = PERSON ( 'UNSPECIFIED', 'UNSPECIFIED', 'UNSPECIFIED', ('UNSPECIFIED'), ('UNSPECIFIED'), ('UNSPECIFIED') ) ;
#45 = ORIENTED_EDGE ( 'NONE', *, *, #59, .F. ) ;
#46 =( GEOMETRIC_REPRESENTATION_CONTEXT ( 3 ) GLOBAL_UNCERTAINTY_ASSIGNED_CONTEXT ( ( #117 ) ) GLOBAL_UNIT_ASSIGNED_CONTEXT ( ( #151, #48, #153 ) ) REPRESENTATION_CONTEXT ( 'NONE', 'WORKASPACE' ) );
#47 = CC_DESIGN_PERSON_AND_ORGANIZATION_ASSIGNMENT ( #78, #118, ( #133 ) ) ;
#48 =( NAMED_UNIT ( * ) PLANE_ANGLE_UNIT ( ) SI_UNIT ( $, .RADIAN. ) );
#49 = DATE_TIME_ROLE ( 'classification_date' ) ;
#50 = VECTOR ( 'NONE', #114, 1000.000000000000000 ) ;
#51 = ADVANCED_FACE ( 'NONE', ( #150 ), #161, .F. ) ;
#52 = APPROVAL ( #86, 'UNSPECIFIED' ) ;
#53 = FACE_OUTER_BOUND ( 'NONE', #167, .T. ) ;
#54 = APPLICATION_CONTEXT ( 'configuration controlled 3d designs of mechanical parts and assemblies' ) ;
#55 = DIRECTION ( 'NONE',  ( -1.000000000000000000, 0.000000000000000000, 0.000000000000000000 ) ) ;
#56 = EDGE_CURVE ( 'NONE', #6, #127, #12, .T. ) ;
#57 = LOCAL_TIME ( 15, 34, 19.00000000000000000, #101 ) ;
#58 = APPROVAL_ROLE ( '' ) ;
#59 = EDGE_CURVE ( 'NONE', #96, #62, #17, .T. ) ;
#60 = APPROVAL_DATE_TIME ( #168, #112 ) ;
#61 = LINE ( 'NONE', #92, #13 ) ;
#62 = VERTEX_POINT ( 'NONE', #93 ) ;
#63 = LOCAL_TIME ( 15, 34, 19.00000000000000000, #11 ) ;
#64 = CARTESIAN_POINT ( 'NONE',  ( 0.000000000000000000, 0.000000000000000000, 0.6999999999999999556 ) ) ;
#65 = APPROVAL ( #77, 'UNSPECIFIED' ) ;
#66 = ORGANIZATION ( 'UNSPECIFIED', 'UNSPECIFIED', '' ) ;
#67 = EDGE_LOOP ( 'NONE', ( #89, #4 ) ) ;
#68 = CARTESIAN_POINT ( 'NONE',  ( 0.000000000000000000, 0.000000000000000000, 0.000000000000000000 ) ) ;
#69 = APPROVAL_ROLE ( '' ) ;
#70 = PERSON_AND_ORGANIZATION ( #44, #66 ) ;
#71 = CALENDAR_DATE ( 2021, 30, 6 ) ;
#72 = PLANE ( 'NONE',  #100 ) ;
#73 = ORIENTED_EDGE ( 'NONE', *, *, #59, .T. ) ;
#74 = APPLICATION_PROTOCOL_DEFINITION ( 'international standard', 'config_control_design', 1994, #136 ) ;
#75 = EDGE_CURVE ( 'NONE', #62, #96, #37, .T. ) ;
#76 = DESIGN_CONTEXT ( 'detailed design', #136, 'design' ) ;
#77 = APPROVAL_STATUS ( 'not_yet_approved' ) ;
#78 = PERSON_AND_ORGANIZATION ( #44, #66 ) ;
#79 = ORIENTED_EDGE ( 'NONE', *, *, #113, .T. ) ;
#80 = CLOSED_SHELL ( 'NONE', ( #128, #109, #160, #51 ) ) ;
#81 = ORIENTED_EDGE ( 'NONE', *, *, #75, .F. ) ;
#82 = DIRECTION ( 'NONE',  ( 1.000000000000000000, 0.000000000000000000, 0.000000000000000000 ) ) ;
#83 = DIRECTION ( 'NONE',  ( 0.000000000000000000, 0.000000000000000000, 1.000000000000000000 ) ) ;
#84 = FACE_OUTER_BOUND ( 'NONE', #162, .T. ) ;
#85 = CIRCLE ( 'NONE', #163, 12.50000000000000000 ) ;
#86 = APPROVAL_STATUS ( 'not_yet_approved' ) ;
#87 = AXIS2_PLACEMENT_3D ( 'NONE', #29, #108, #55 ) ;
#88 = CALENDAR_DATE ( 2021, 30, 6 ) ;
#89 = ORIENTED_EDGE ( 'NONE', *, *, #113, .F. ) ;
#90 = EDGE_CURVE ( 'NONE', #62, #6, #164, .T. ) ;
#91 = DATE_AND_TIME ( #71, #139 ) ;
#92 = CARTESIAN_POINT ( 'NONE',  ( -12.50000000000000000, 0.000000000000000000, 0.6999999999999999556 ) ) ;
#93 = CARTESIAN_POINT ( 'NONE',  ( 12.50000000000000000, 1.530808498934191521E-15, 0.6999999999999999556 ) ) ;
#94 = PERSON_AND_ORGANIZATION ( #44, #66 ) ;
#95 = CYLINDRICAL_SURFACE ( 'NONE', #125, 12.50000000000000000 ) ;
#96 = VERTEX_POINT ( 'NONE', #24 ) ;
#97 = APPROVAL_STATUS ( 'not_yet_approved' ) ;
#98 = PERSON_AND_ORGANIZATION ( #44, #66 ) ;
#99 = CARTESIAN_POINT ( 'NONE',  ( 0.000000000000000000, 0.000000000000000000, 0.6999999999999999556 ) ) ;
#100 = AXIS2_PLACEMENT_3D ( 'NONE', #99, #110, #165 ) ;
#101 = COORDINATED_UNIVERSAL_TIME_OFFSET ( 5, 0, .BEHIND. ) ;
#102 = CARTESIAN_POINT ( 'NONE',  ( 12.50000000000000000, 1.530808498934191521E-15, 0.000000000000000000 ) ) ;
#103 = SHAPE_DEFINITION_REPRESENTATION ( #171, #7 ) ;
#104 = DIRECTION ( 'NONE',  ( 0.000000000000000000, 0.000000000000000000, 1.000000000000000000 ) ) ;
#105 = ORIENTED_EDGE ( 'NONE', *, *, #8, .F. ) ;
#106 = CC_DESIGN_PERSON_AND_ORGANIZATION_ASSIGNMENT ( #70, #35, ( #1 ) ) ;
#107 = DIRECTION ( 'NONE',  ( 1.000000000000000000, 0.000000000000000000, 0.000000000000000000 ) ) ;
#108 = DIRECTION ( 'NONE',  ( -0.000000000000000000, -0.000000000000000000, -1.000000000000000000 ) ) ;
#109 = ADVANCED_FACE ( 'NONE', ( #84 ), #95, .T. ) ;
#110 = DIRECTION ( 'NONE',  ( 0.000000000000000000, 0.000000000000000000, 1.000000000000000000 ) ) ;
#111 = COORDINATED_UNIVERSAL_TIME_OFFSET ( 5, 0, .BEHIND. ) ;
#112 = APPROVAL ( #97, 'UNSPECIFIED' ) ;
#113 = EDGE_CURVE ( 'NONE', #127, #6, #85, .T. ) ;
#114 = DIRECTION ( 'NONE',  ( -0.000000000000000000, -0.000000000000000000, -1.000000000000000000 ) ) ;
#115 = CARTESIAN_POINT ( 'NONE',  ( 0.000000000000000000, 0.000000000000000000, 0.6999999999999999556 ) ) ;
#116 = APPROVAL_ROLE ( '' ) ;
#117 = UNCERTAINTY_MEASURE_WITH_UNIT (LENGTH_MEASURE( 1.000000000000000082E-05 ), #151, 'distance_accuracy_value', 'NONE');
#118 = PERSON_AND_ORGANIZATION_ROLE ( 'design_owner' ) ;
#119 = ORIENTED_EDGE ( 'NONE', *, *, #56, .T. ) ;
#120 = PRODUCT_RELATED_PRODUCT_CATEGORY ( 'detail', '', ( #133 ) ) ;
#121 = AXIS2_PLACEMENT_3D ( 'NONE', #129, #104, #40 ) ;
#122 = COORDINATED_UNIVERSAL_TIME_OFFSET ( 5, 0, .BEHIND. ) ;
#123 = CC_DESIGN_SECURITY_CLASSIFICATION ( #1, ( #20 ) ) ;
#124 = DIRECTION ( 'NONE',  ( 0.000000000000000000, 0.000000000000000000, 1.000000000000000000 ) ) ;
#125 = AXIS2_PLACEMENT_3D ( 'NONE', #64, #25, #126 ) ;
#126 = DIRECTION ( 'NONE',  ( -1.000000000000000000, 0.000000000000000000, 0.000000000000000000 ) ) ;
#127 = VERTEX_POINT ( 'NONE', #18 ) ;
#128 = ADVANCED_FACE ( 'NONE', ( #23 ), #22, .T. ) ;
#129 = CARTESIAN_POINT ( 'NONE',  ( 0.000000000000000000, 0.000000000000000000, 0.000000000000000000 ) ) ;
#130 = DATE_AND_TIME ( #174, #57 ) ;
#131 = AXIS2_PLACEMENT_3D ( 'NONE', #169, #124, #82 ) ;
#132 = PERSON_AND_ORGANIZATION_ROLE ( 'creator' ) ;
#133 = PRODUCT ( 'Web Model 18292_18293', 'Web Model 18292_18293', '', ( #147 ) ) ;
#134 = PERSON_AND_ORGANIZATION ( #44, #66 ) ;
#135 = ORIENTED_EDGE ( 'NONE', *, *, #90, .F. ) ;
#136 = APPLICATION_CONTEXT ( 'configuration controlled 3d designs of mechanical parts and assemblies' ) ;
#137 = APPROVAL_PERSON_ORGANIZATION ( #134, #65, #58 ) ;
#138 = PRODUCT_DEFINITION ( 'UNKNOWN', '', #20, #76 ) ;
#139 = LOCAL_TIME ( 15, 34, 19.00000000000000000, #122 ) ;
#140 = PERSON_AND_ORGANIZATION ( #44, #66 ) ;
#141 = DIRECTION ( 'NONE',  ( 0.000000000000000000, 0.000000000000000000, 1.000000000000000000 ) ) ;
#142 = AXIS2_PLACEMENT_3D ( 'NONE', #145, #83, #170 ) ;
#143 = DIRECTION ( 'NONE',  ( 1.000000000000000000, 0.000000000000000000, 0.000000000000000000 ) ) ;
#144 = APPROVAL_PERSON_ORGANIZATION ( #43, #112, #116 ) ;
#145 = CARTESIAN_POINT ( 'NONE',  ( 0.000000000000000000, 0.000000000000000000, 0.6999999999999999556 ) ) ;
#146 = ORIENTED_EDGE ( 'NONE', *, *, #90, .T. ) ;
#147 = MECHANICAL_CONTEXT ( 'NONE', #54, 'mechanical' ) ;
#148 = APPROVAL_DATE_TIME ( #155, #52 ) ;
#149 = PERSON_AND_ORGANIZATION_ROLE ( 'design_supplier' ) ;
#150 = FACE_OUTER_BOUND ( 'NONE', #67, .T. ) ;
#151 =( LENGTH_UNIT ( ) NAMED_UNIT ( * ) SI_UNIT ( .MILLI., .METRE. ) );
#152 = AXIS2_PLACEMENT_3D ( 'NONE', #36, #16, #107 ) ;
#153 =( NAMED_UNIT ( * ) SI_UNIT ( $, .STERADIAN. ) SOLID_ANGLE_UNIT ( ) );
#154 = AXIS2_PLACEMENT_3D ( 'NONE', #115, #141, #143 ) ;
#155 = DATE_AND_TIME ( #15, #63 ) ;
#156 = SECURITY_CLASSIFICATION_LEVEL ( 'unclassified' ) ;
#157 = ORIENTED_EDGE ( 'NONE', *, *, #8, .T. ) ;
#158 = CC_DESIGN_PERSON_AND_ORGANIZATION_ASSIGNMENT ( #94, #31, ( #138 ) ) ;
#159 = CC_DESIGN_APPROVAL ( #112, ( #20 ) ) ;
#160 = ADVANCED_FACE ( 'NONE', ( #53 ), #72, .T. ) ;
#161 = PLANE ( 'NONE',  #121 ) ;
#162 = EDGE_LOOP ( 'NONE', ( #135, #45, #157, #79 ) ) ;
#163 = AXIS2_PLACEMENT_3D ( 'NONE', #68, #32, #14 ) ;
#164 = LINE ( 'NONE', #41, #50 ) ;
#165 = DIRECTION ( 'NONE',  ( 1.000000000000000000, 0.000000000000000000, -0.000000000000000000 ) ) ;
#166 = CC_DESIGN_DATE_AND_TIME_ASSIGNMENT ( #91, #2, ( #138 ) ) ;
#167 = EDGE_LOOP ( 'NONE', ( #73, #175 ) ) ;
#168 = DATE_AND_TIME ( #21, #172 ) ;
#169 = CARTESIAN_POINT ( 'NONE',  ( 0.000000000000000000, 0.000000000000000000, 0.000000000000000000 ) ) ;
#170 = DIRECTION ( 'NONE',  ( 1.000000000000000000, 0.000000000000000000, 0.000000000000000000 ) ) ;
#171 = PRODUCT_DEFINITION_SHAPE ( 'NONE', 'NONE',  #138 ) ;
#172 = LOCAL_TIME ( 15, 34, 19.00000000000000000, #33 ) ;
#173 = CC_DESIGN_APPROVAL ( #52, ( #138 ) ) ;
#174 = CALENDAR_DATE ( 2021, 30, 6 ) ;
#175 = ORIENTED_EDGE ( 'NONE', *, *, #75, .T. ) ;
ENDSEC;
END-ISO-10303-21;
