ISO-10303-21;
HEADER;
FILE_DESCRIPTION (( 'STEP AP203' ),
    '1' );
FILE_NAME ('Web Model 48459MX_41034.step',
    '2017-10-30T13:21:30',
    ( '' ),
    ( '' ),
    'SwSTEP 2.0',
    'SolidWorks 2016',
    '' );
FILE_SCHEMA (( 'CONFIG_CONTROL_DESIGN' ));
ENDSEC;

DATA;
#1 = APPLICATION_PROTOCOL_DEFINITION ( 'international standard', 'config_control_design', 1994, #22 ) ;
#2 = COORDINATED_UNIVERSAL_TIME_OFFSET ( 5, 0, .BEHIND. ) ;
#3 = LINE ( 'NONE', #32, #198 ) ;
#4 = EDGE_LOOP ( 'NONE', ( #61, #148, #54, #153 ) ) ;
#5 = CARTESIAN_POINT ( 'NONE',  ( 0.0000000000000000000, 0.0000000000000000000, -4.750000000000000000 ) ) ;
#6 = DATE_AND_TIME ( #149, #53 ) ;
#7 = PERSON_AND_ORGANIZATION ( #177, #108 ) ;
#8 = VERTEX_POINT ( 'NONE', #228 ) ;
#9 = DIRECTION ( 'NONE',  ( 0.0000000000000000000, 1.000000000000000000, 0.0000000000000000000 ) ) ;
#10 = CC_DESIGN_DATE_AND_TIME_ASSIGNMENT ( #16, #196, ( #157 ) ) ;
#11 = DIRECTION ( 'NONE',  ( 1.000000000000000000, 1.387778780781445700E-016, 0.0000000000000000000 ) ) ;
#12 = EDGE_LOOP ( 'NONE', ( #72, #111, #173, #181 ) ) ;
#13 = ORIENTED_EDGE ( 'NONE', *, *, #95, .F. ) ;
#14 = CARTESIAN_POINT ( 'NONE',  ( 24.99999999999999600, 25.00000000000000400, 4.750000000000000000 ) ) ;
#15 = PLANE ( 'NONE',  #184 ) ;
#16 = DATE_AND_TIME ( #164, #222 ) ;
#17 = DIRECTION ( 'NONE',  ( -1.000000000000000000, -1.387778780781445700E-016, 0.0000000000000000000 ) ) ;
#18 = LINE ( 'NONE', #77, #49 ) ;
#19 = DIRECTION ( 'NONE',  ( 0.0000000000000000000, 0.0000000000000000000, 1.000000000000000000 ) ) ;
#20 = VECTOR ( 'NONE', #17, 1000.000000000000000 ) ;
#21 = CC_DESIGN_PERSON_AND_ORGANIZATION_ASSIGNMENT ( #221, #217, ( #188 ) ) ;
#22 = APPLICATION_CONTEXT ( 'configuration controlled 3d designs of mechanical parts and assemblies' ) ;
#23 = VECTOR ( 'NONE', #103, 1000.000000000000000 ) ;
#24 = CC_DESIGN_PERSON_AND_ORGANIZATION_ASSIGNMENT ( #69, #33, ( #188 ) ) ;
#25 = VERTEX_POINT ( 'NONE', #152 ) ;
#26 = CC_DESIGN_SECURITY_CLASSIFICATION ( #212, ( #188 ) ) ;
#27 = LINE ( 'NONE', #155, #42 ) ;
#28 = DIRECTION ( 'NONE',  ( 0.0000000000000000000, -0.0000000000000000000, 1.000000000000000000 ) ) ;
#29 = EDGE_LOOP ( 'NONE', ( #59, #56, #185, #40 ) ) ;
#30 = PLANE ( 'NONE',  #55 ) ;
#31 = LINE ( 'NONE', #169, #172 ) ;
#32 = CARTESIAN_POINT ( 'NONE',  ( -25.00000000000000400, -25.00000000000000400, -4.750000000000000000 ) ) ;
#33 = PERSON_AND_ORGANIZATION_ROLE ( 'design_supplier' ) ;
#34 = LOCAL_TIME ( 9, 21, 30.00000000000000000, #180 ) ;
#35 = FACE_OUTER_BOUND ( 'NONE', #29, .T. ) ;
#36 =( GEOMETRIC_REPRESENTATION_CONTEXT ( 3 ) GLOBAL_UNCERTAINTY_ASSIGNED_CONTEXT ( ( #37 ) ) GLOBAL_UNIT_ASSIGNED_CONTEXT ( ( #68, #219, #182 ) ) REPRESENTATION_CONTEXT ( 'NONE', 'WORKASPACE' ) );
#37 = UNCERTAINTY_MEASURE_WITH_UNIT (LENGTH_MEASURE( 1.000000000000000100E-005 ), #68, 'distance_accuracy_value', 'NONE');
#38 = DIRECTION ( 'NONE',  ( 1.000000000000000000, 0.0000000000000000000, 0.0000000000000000000 ) ) ;
#39 = DATE_AND_TIME ( #223, #34 ) ;
#40 = ORIENTED_EDGE ( 'NONE', *, *, #174, .F. ) ;
#41 = COORDINATED_UNIVERSAL_TIME_OFFSET ( 5, 0, .BEHIND. ) ;
#42 = VECTOR ( 'NONE', #211, 1000.000000000000000 ) ;
#43 = DATE_AND_TIME ( #74, #226 ) ;
#44 = DIRECTION ( 'NONE',  ( 1.000000000000000000, 0.0000000000000000000, -0.0000000000000000000 ) ) ;
#45 = CC_DESIGN_APPROVAL ( #132, ( #212 ) ) ;
#46 = PERSON_AND_ORGANIZATION ( #177, #108 ) ;
#47 = DIRECTION ( 'NONE',  ( 1.000000000000000000, 0.0000000000000000000, -0.0000000000000000000 ) ) ;
#48 = APPROVAL_DATE_TIME ( #170, #168 ) ;
#49 = VECTOR ( 'NONE', #192, 1000.000000000000000 ) ;
#50 = ORIENTED_EDGE ( 'NONE', *, *, #187, .T. ) ;
#51 = APPROVAL_ROLE ( '' ) ;
#52 = PRODUCT ( 'Web Model 48459MX_41034', 'Web Model 48459MX_41034', '', ( #105 ) ) ;
#53 = LOCAL_TIME ( 9, 21, 30.00000000000000000, #233 ) ;
#54 = ORIENTED_EDGE ( 'NONE', *, *, #87, .F. ) ;
#55 = AXIS2_PLACEMENT_3D ( 'NONE', #156, #232, #101 ) ;
#56 = ORIENTED_EDGE ( 'NONE', *, *, #119, .F. ) ;
#57 = DESIGN_CONTEXT ( 'detailed design', #22, 'design' ) ;
#58 = VECTOR ( 'NONE', #207, 1000.000000000000000 ) ;
#59 = ORIENTED_EDGE ( 'NONE', *, *, #199, .F. ) ;
#60 = LINE ( 'NONE', #81, #104 ) ;
#61 = ORIENTED_EDGE ( 'NONE', *, *, #135, .T. ) ;
#62 = ORIENTED_EDGE ( 'NONE', *, *, #197, .F. ) ;
#63 = DIRECTION ( 'NONE',  ( 0.0000000000000000000, -0.0000000000000000000, 1.000000000000000000 ) ) ;
#64 = DIRECTION ( 'NONE',  ( 0.0000000000000000000, 1.000000000000000000, 0.0000000000000000000 ) ) ;
#65 = PERSON_AND_ORGANIZATION ( #177, #108 ) ;
#66 = LINE ( 'NONE', #179, #23 ) ;
#67 = APPLICATION_PROTOCOL_DEFINITION ( 'international standard', 'config_control_design', 1994, #106 ) ;
#68 =( LENGTH_UNIT ( ) NAMED_UNIT ( * ) SI_UNIT ( .MILLI., .METRE. ) );
#69 = PERSON_AND_ORGANIZATION ( #177, #108 ) ;
#70 = LINE ( 'NONE', #175, #20 ) ;
#71 = AXIS2_PLACEMENT_3D ( 'NONE', #5, #28, #44 ) ;
#72 = ORIENTED_EDGE ( 'NONE', *, *, #197, .T. ) ;
#73 = PLANE ( 'NONE',  #71 ) ;
#74 = CALENDAR_DATE ( 2017, 30, 10 ) ;
#75 = ADVANCED_FACE ( 'NONE', ( #35 ), #73, .F. ) ;
#76 = VERTEX_POINT ( 'NONE', #166 ) ;
#77 = CARTESIAN_POINT ( 'NONE',  ( 24.99999999999999600, -24.99999999999999600, 4.750000000000000000 ) ) ;
#78 = CC_DESIGN_APPROVAL ( #201, ( #157 ) ) ;
#79 = CARTESIAN_POINT ( 'NONE',  ( 24.99999999999999600, -24.99999999999999600, -4.750000000000000000 ) ) ;
#80 = ORIENTED_EDGE ( 'NONE', *, *, #110, .T. ) ;
#81 = CARTESIAN_POINT ( 'NONE',  ( -25.00000000000000400, 24.99999999999999600, 4.750000000000000000 ) ) ;
#82 = AXIS2_PLACEMENT_3D ( 'NONE', #220, #19, #38 ) ;
#83 = DIRECTION ( 'NONE',  ( -1.000000000000000000, -1.387778780781445700E-016, 0.0000000000000000000 ) ) ;
#84 = DIRECTION ( 'NONE',  ( -0.0000000000000000000, -1.000000000000000000, -0.0000000000000000000 ) ) ;
#85 = APPROVAL_ROLE ( '' ) ;
#86 = DATE_TIME_ROLE ( 'classification_date' ) ;
#87 = EDGE_CURVE ( 'NONE', #76, #100, #31, .T. ) ;
#88 = APPROVAL_PERSON_ORGANIZATION ( #65, #132, #216 ) ;
#89 = CC_DESIGN_DATE_AND_TIME_ASSIGNMENT ( #6, #86, ( #212 ) ) ;
#90 = VERTEX_POINT ( 'NONE', #114 ) ;
#91 = CC_DESIGN_PERSON_AND_ORGANIZATION_ASSIGNMENT ( #7, #161, ( #52 ) ) ;
#92 = ADVANCED_FACE ( 'NONE', ( #150 ), #96, .T. ) ;
#93 = VECTOR ( 'NONE', #138, 1000.000000000000000 ) ;
#94 = ORIENTED_EDGE ( 'NONE', *, *, #131, .F. ) ;
#95 = EDGE_CURVE ( 'NONE', #76, #8, #18, .T. ) ;
#96 = PLANE ( 'NONE',  #205 ) ;
#97 = ADVANCED_FACE ( 'NONE', ( #165 ), #30, .F. ) ;
#98 = LOCAL_TIME ( 9, 21, 30.00000000000000000, #2 ) ;
#99 = CARTESIAN_POINT ( 'NONE',  ( -25.00000000000000400, 24.99999999999999600, -4.750000000000000000 ) ) ;
#100 = VERTEX_POINT ( 'NONE', #117 ) ;
#101 = DIRECTION ( 'NONE',  ( 0.0000000000000000000, 0.0000000000000000000, 1.000000000000000000 ) ) ;
#102 = DIRECTION ( 'NONE',  ( 1.000000000000000000, 0.0000000000000000000, 0.0000000000000000000 ) ) ;
#103 = DIRECTION ( 'NONE',  ( -0.0000000000000000000, -0.0000000000000000000, -1.000000000000000000 ) ) ;
#104 = VECTOR ( 'NONE', #234, 1000.000000000000000 ) ;
#105 = MECHANICAL_CONTEXT ( 'NONE', #106, 'mechanical' ) ;
#106 = APPLICATION_CONTEXT ( 'configuration controlled 3d designs of mechanical parts and assemblies' ) ;
#107 = VECTOR ( 'NONE', #176, 1000.000000000000000 ) ;
#108 = ORGANIZATION ( 'UNSPECIFIED', 'UNSPECIFIED', '' ) ;
#109 = ORIENTED_EDGE ( 'NONE', *, *, #126, .T. ) ;
#110 = EDGE_CURVE ( 'NONE', #100, #218, #66, .T. ) ;
#111 = ORIENTED_EDGE ( 'NONE', *, *, #146, .T. ) ;
#112 = COORDINATED_UNIVERSAL_TIME_OFFSET ( 5, 0, .BEHIND. ) ;
#113 = SHAPE_DEFINITION_REPRESENTATION ( #189, #144 ) ;
#114 = CARTESIAN_POINT ( 'NONE',  ( -25.00000000000000400, -25.00000000000000400, -4.750000000000000000 ) ) ;
#115 = APPROVAL_PERSON_ORGANIZATION ( #230, #201, #85 ) ;
#116 = ORIENTED_EDGE ( 'NONE', *, *, #174, .T. ) ;
#117 = CARTESIAN_POINT ( 'NONE',  ( 24.99999999999999600, 25.00000000000000400, 4.750000000000000000 ) ) ;
#118 = ADVANCED_FACE ( 'NONE', ( #145 ), #15, .F. ) ;
#119 = EDGE_CURVE ( 'NONE', #218, #154, #236, .T. ) ;
#120 = CARTESIAN_POINT ( 'NONE',  ( 0.0000000000000000000, 0.0000000000000000000, 4.750000000000000000 ) ) ;
#121 = CALENDAR_DATE ( 2017, 30, 10 ) ;
#122 = CARTESIAN_POINT ( 'NONE',  ( -25.00000000000000400, -25.00000000000000400, 4.750000000000000000 ) ) ;
#123 = CARTESIAN_POINT ( 'NONE',  ( 24.99999999999999600, -24.99999999999999600, 4.750000000000000000 ) ) ;
#124 = SECURITY_CLASSIFICATION_LEVEL ( 'unclassified' ) ;
#125 = FACE_OUTER_BOUND ( 'NONE', #195, .T. ) ;
#126 = EDGE_CURVE ( 'NONE', #160, #154, #60, .T. ) ;
#127 = APPROVAL_STATUS ( 'not_yet_approved' ) ;
#128 = VECTOR ( 'NONE', #64, 1000.000000000000000 ) ;
#129 = LINE ( 'NONE', #209, #128 ) ;
#130 = AXIS2_PLACEMENT_3D ( 'NONE', #200, #158, #83 ) ;
#131 = EDGE_CURVE ( 'NONE', #100, #160, #70, .T. ) ;
#132 = APPROVAL ( #237, 'UNSPECIFIED' ) ;
#133 = PERSON_AND_ORGANIZATION ( #177, #108 ) ;
#134 = LINE ( 'NONE', #79, #213 ) ;
#135 = EDGE_CURVE ( 'NONE', #8, #218, #129, .T. ) ;
#136 = DIRECTION ( 'NONE',  ( 1.387778780781445700E-016, -1.000000000000000000, 0.0000000000000000000 ) ) ;
#137 = PLANE ( 'NONE',  #130 ) ;
#138 = DIRECTION ( 'NONE',  ( -0.0000000000000000000, -1.000000000000000000, -0.0000000000000000000 ) ) ;
#139 = APPROVAL_DATE_TIME ( #39, #201 ) ;
#140 = EDGE_LOOP ( 'NONE', ( #151, #141, #94, #80 ) ) ;
#141 = ORIENTED_EDGE ( 'NONE', *, *, #126, .F. ) ;
#142 = PERSON_AND_ORGANIZATION_ROLE ( 'classification_officer' ) ;
#143 = APPROVAL_PERSON_ORGANIZATION ( #133, #168, #51 ) ;
#144 = ADVANCED_BREP_SHAPE_REPRESENTATION ( 'Web Model 48459MX_41034', ( #203, #82 ), #36 ) ;
#145 = FACE_OUTER_BOUND ( 'NONE', #140, .T. ) ;
#146 = EDGE_CURVE ( 'NONE', #25, #76, #163, .T. ) ;
#147 = PERSON_AND_ORGANIZATION ( #177, #108 ) ;
#148 = ORIENTED_EDGE ( 'NONE', *, *, #110, .F. ) ;
#149 = CALENDAR_DATE ( 2017, 30, 10 ) ;
#150 = FACE_OUTER_BOUND ( 'NONE', #12, .T. ) ;
#151 = ORIENTED_EDGE ( 'NONE', *, *, #119, .T. ) ;
#152 = CARTESIAN_POINT ( 'NONE',  ( -25.00000000000000400, -25.00000000000000400, 4.750000000000000000 ) ) ;
#153 = ORIENTED_EDGE ( 'NONE', *, *, #95, .T. ) ;
#154 = VERTEX_POINT ( 'NONE', #99 ) ;
#155 = CARTESIAN_POINT ( 'NONE',  ( -25.00000000000000400, -25.00000000000000400, 4.750000000000000000 ) ) ;
#156 = CARTESIAN_POINT ( 'NONE',  ( 24.99999999999999600, -24.99999999999999600, 4.750000000000000000 ) ) ;
#157 = PRODUCT_DEFINITION ( 'UNKNOWN', '', #188, #57 ) ;
#158 = DIRECTION ( 'NONE',  ( -1.387778780781445700E-016, 1.000000000000000000, 0.0000000000000000000 ) ) ;
#159 = APPROVAL_STATUS ( 'not_yet_approved' ) ;
#160 = VERTEX_POINT ( 'NONE', #178 ) ;
#161 = PERSON_AND_ORGANIZATION_ROLE ( 'design_owner' ) ;
#162 = CARTESIAN_POINT ( 'NONE',  ( 24.99999999999999600, 25.00000000000000400, -4.750000000000000000 ) ) ;
#163 = LINE ( 'NONE', #123, #107 ) ;
#164 = CALENDAR_DATE ( 2017, 30, 10 ) ;
#165 = FACE_OUTER_BOUND ( 'NONE', #4, .T. ) ;
#166 = CARTESIAN_POINT ( 'NONE',  ( 24.99999999999999600, -24.99999999999999600, 4.750000000000000000 ) ) ;
#167 = ADVANCED_FACE ( 'NONE', ( #125 ), #214, .F. ) ;
#168 = APPROVAL ( #127, 'UNSPECIFIED' ) ;
#169 = CARTESIAN_POINT ( 'NONE',  ( 24.99999999999999600, -24.99999999999999600, 4.750000000000000000 ) ) ;
#170 = DATE_AND_TIME ( #121, #98 ) ;
#171 = CC_DESIGN_PERSON_AND_ORGANIZATION_ASSIGNMENT ( #46, #142, ( #212 ) ) ;
#172 = VECTOR ( 'NONE', #9, 1000.000000000000000 ) ;
#173 = ORIENTED_EDGE ( 'NONE', *, *, #87, .T. ) ;
#174 = EDGE_CURVE ( 'NONE', #90, #8, #134, .T. ) ;
#175 = CARTESIAN_POINT ( 'NONE',  ( 24.99999999999999600, 25.00000000000000400, 4.750000000000000000 ) ) ;
#176 = DIRECTION ( 'NONE',  ( 1.000000000000000000, 1.387778780781445700E-016, -0.0000000000000000000 ) ) ;
#177 = PERSON ( 'UNSPECIFIED', 'UNSPECIFIED', 'UNSPECIFIED', ('UNSPECIFIED'), ('UNSPECIFIED'), ('UNSPECIFIED') ) ;
#178 = CARTESIAN_POINT ( 'NONE',  ( -25.00000000000000400, 24.99999999999999600, 4.750000000000000000 ) ) ;
#179 = CARTESIAN_POINT ( 'NONE',  ( 24.99999999999999600, 25.00000000000000400, 4.750000000000000000 ) ) ;
#180 = COORDINATED_UNIVERSAL_TIME_OFFSET ( 5, 0, .BEHIND. ) ;
#181 = ORIENTED_EDGE ( 'NONE', *, *, #131, .T. ) ;
#182 =( NAMED_UNIT ( * ) SI_UNIT ( $, .STERADIAN. ) SOLID_ANGLE_UNIT ( ) );
#183 = PRODUCT_RELATED_PRODUCT_CATEGORY ( 'detail', '', ( #52 ) ) ;
#184 = AXIS2_PLACEMENT_3D ( 'NONE', #14, #136, #11 ) ;
#185 = ORIENTED_EDGE ( 'NONE', *, *, #135, .F. ) ;
#186 = AXIS2_PLACEMENT_3D ( 'NONE', #190, #102, #235 ) ;
#187 = EDGE_CURVE ( 'NONE', #25, #90, #27, .T. ) ;
#188 = PRODUCT_DEFINITION_FORMATION_WITH_SPECIFIED_SOURCE ( 'ANY', '', #52, .NOT_KNOWN. ) ;
#189 = PRODUCT_DEFINITION_SHAPE ( 'NONE', 'NONE',  #157 ) ;
#190 = CARTESIAN_POINT ( 'NONE',  ( -25.00000000000000400, -25.00000000000000400, 4.750000000000000000 ) ) ;
#191 = ORIENTED_EDGE ( 'NONE', *, *, #199, .T. ) ;
#192 = DIRECTION ( 'NONE',  ( -0.0000000000000000000, -0.0000000000000000000, -1.000000000000000000 ) ) ;
#193 = DIRECTION ( 'NONE',  ( 1.000000000000000000, 1.387778780781445700E-016, -0.0000000000000000000 ) ) ;
#194 = CC_DESIGN_APPROVAL ( #168, ( #188 ) ) ;
#195 = EDGE_LOOP ( 'NONE', ( #191, #208, #62, #109 ) ) ;
#196 = DATE_TIME_ROLE ( 'creation_date' ) ;
#197 = EDGE_CURVE ( 'NONE', #160, #25, #204, .T. ) ;
#198 = VECTOR ( 'NONE', #84, 1000.000000000000000 ) ;
#199 = EDGE_CURVE ( 'NONE', #154, #90, #3, .T. ) ;
#200 = CARTESIAN_POINT ( 'NONE',  ( 24.99999999999999600, -24.99999999999999600, 4.750000000000000000 ) ) ;
#201 = APPROVAL ( #159, 'UNSPECIFIED' ) ;
#202 = FACE_OUTER_BOUND ( 'NONE', #225, .T. ) ;
#203 = MANIFOLD_SOLID_BREP ( 'Boss-Extrude1', #227 ) ;
#204 = LINE ( 'NONE', #122, #93 ) ;
#205 = AXIS2_PLACEMENT_3D ( 'NONE', #120, #63, #47 ) ;
#206 = ORIENTED_EDGE ( 'NONE', *, *, #146, .F. ) ;
#207 = DIRECTION ( 'NONE',  ( -1.000000000000000000, -1.387778780781445700E-016, 0.0000000000000000000 ) ) ;
#208 = ORIENTED_EDGE ( 'NONE', *, *, #187, .F. ) ;
#209 = CARTESIAN_POINT ( 'NONE',  ( 24.99999999999999600, -24.99999999999999600, -4.750000000000000000 ) ) ;
#210 = CARTESIAN_POINT ( 'NONE',  ( 24.99999999999999600, 25.00000000000000400, -4.750000000000000000 ) ) ;
#211 = DIRECTION ( 'NONE',  ( -0.0000000000000000000, -0.0000000000000000000, -1.000000000000000000 ) ) ;
#212 = SECURITY_CLASSIFICATION ( '', '', #124 ) ;
#213 = VECTOR ( 'NONE', #193, 1000.000000000000000 ) ;
#214 = PLANE ( 'NONE',  #186 ) ;
#215 = PERSON_AND_ORGANIZATION_ROLE ( 'creator' ) ;
#216 = APPROVAL_ROLE ( '' ) ;
#217 = PERSON_AND_ORGANIZATION_ROLE ( 'creator' ) ;
#218 = VERTEX_POINT ( 'NONE', #162 ) ;
#219 =( NAMED_UNIT ( * ) PLANE_ANGLE_UNIT ( ) SI_UNIT ( $, .RADIAN. ) );
#220 = CARTESIAN_POINT ( 'NONE',  ( 0.0000000000000000000, 0.0000000000000000000, 0.0000000000000000000 ) ) ;
#221 = PERSON_AND_ORGANIZATION ( #177, #108 ) ;
#222 = LOCAL_TIME ( 9, 21, 30.00000000000000000, #112 ) ;
#223 = CALENDAR_DATE ( 2017, 30, 10 ) ;
#224 = CC_DESIGN_PERSON_AND_ORGANIZATION_ASSIGNMENT ( #147, #215, ( #157 ) ) ;
#225 = EDGE_LOOP ( 'NONE', ( #116, #13, #206, #50 ) ) ;
#226 = LOCAL_TIME ( 9, 21, 30.00000000000000000, #41 ) ;
#227 = CLOSED_SHELL ( 'NONE', ( #167, #231, #97, #118, #92, #75 ) ) ;
#228 = CARTESIAN_POINT ( 'NONE',  ( 24.99999999999999600, -24.99999999999999600, -4.750000000000000000 ) ) ;
#229 = APPROVAL_DATE_TIME ( #43, #132 ) ;
#230 = PERSON_AND_ORGANIZATION ( #177, #108 ) ;
#231 = ADVANCED_FACE ( 'NONE', ( #202 ), #137, .F. ) ;
#232 = DIRECTION ( 'NONE',  ( -1.000000000000000000, 0.0000000000000000000, 0.0000000000000000000 ) ) ;
#233 = COORDINATED_UNIVERSAL_TIME_OFFSET ( 5, 0, .BEHIND. ) ;
#234 = DIRECTION ( 'NONE',  ( -0.0000000000000000000, -0.0000000000000000000, -1.000000000000000000 ) ) ;
#235 = DIRECTION ( 'NONE',  ( 0.0000000000000000000, 0.0000000000000000000, -1.000000000000000000 ) ) ;
#236 = LINE ( 'NONE', #210, #58 ) ;
#237 = APPROVAL_STATUS ( 'not_yet_approved' ) ;
ENDSEC;
END-ISO-10303-21;
