ISO-10303-21;
HEADER;
FILE_DESCRIPTION (( 'STEP AP203' ),
    '1' );
FILE_NAME ('Web Model 13402_13407.step',
    '2021-06-30T20:45:03',
    ( '' ),
    ( '' ),
    'SwSTEP 2.0',
    'SolidWorks 2018',
    '' );
FILE_SCHEMA (( 'CONFIG_CONTROL_DESIGN' ));
ENDSEC;

DATA;
#1 = EDGE_CURVE ( 'NONE', #85, #168, #186, .T. ) ;
#2 = APPROVAL_STATUS ( 'not_yet_approved' ) ;
#3 = PERSON_AND_ORGANIZATION ( #227, #132 ) ;
#4 = FACE_OUTER_BOUND ( 'NONE', #208, .T. ) ;
#5 = FACE_OUTER_BOUND ( 'NONE', #170, .T. ) ;
#6 = VERTEX_POINT ( 'NONE', #29 ) ;
#7 = VECTOR ( 'NONE', #164, 1000.000000000000000 ) ;
#8 = DIRECTION ( 'NONE',  ( 1.000000000000000000, 0.000000000000000000, 0.000000000000000000 ) ) ;
#9 = CARTESIAN_POINT ( 'NONE',  ( 12.50000000000000000, 12.50000000000000000, 0.000000000000000000 ) ) ;
#10 = PLANE ( 'NONE',  #230 ) ;
#11 = VECTOR ( 'NONE', #144, 1000.000000000000000 ) ;
#12 = CARTESIAN_POINT ( 'NONE',  ( -12.50000000000000000, 12.50000000000000000, 3.000000000000000000 ) ) ;
#13 = UNCERTAINTY_MEASURE_WITH_UNIT (LENGTH_MEASURE( 1.000000000000000082E-05 ), #62, 'distance_accuracy_value', 'NONE');
#14 = CARTESIAN_POINT ( 'NONE',  ( 12.50000000000000000, 12.50000000000000000, 3.000000000000000000 ) ) ;
#15 = DIRECTION ( 'NONE',  ( 1.000000000000000000, 1.387778780781445429E-16, -0.000000000000000000 ) ) ;
#16 = VERTEX_POINT ( 'NONE', #180 ) ;
#17 = APPROVAL_PERSON_ORGANIZATION ( #3, #92, #135 ) ;
#18 = FACE_OUTER_BOUND ( 'NONE', #65, .T. ) ;
#19 = ADVANCED_BREP_SHAPE_REPRESENTATION ( 'Web Model 13402_13407', ( #36, #28 ), #189 ) ;
#20 = ORIENTED_EDGE ( 'NONE', *, *, #112, .T. ) ;
#21 = LOCAL_TIME ( 16, 45, 3.000000000000000000, #159 ) ;
#22 = ORIENTED_EDGE ( 'NONE', *, *, #40, .T. ) ;
#23 = APPROVAL_DATE_TIME ( #35, #99 ) ;
#24 = EDGE_LOOP ( 'NONE', ( #234, #157, #86, #45 ) ) ;
#25 = ADVANCED_FACE ( 'NONE', ( #5 ), #10, .F. ) ;
#26 = CARTESIAN_POINT ( 'NONE',  ( 12.50000000000000355, -12.50000000000000000, 3.000000000000000000 ) ) ;
#27 = FACE_OUTER_BOUND ( 'NONE', #24, .T. ) ;
#28 = AXIS2_PLACEMENT_3D ( 'NONE', #215, #103, #87 ) ;
#29 = CARTESIAN_POINT ( 'NONE',  ( 12.50000000000000000, 12.50000000000000000, 3.000000000000000000 ) ) ;
#30 = PLANE ( 'NONE',  #175 ) ;
#31 = CARTESIAN_POINT ( 'NONE',  ( -12.49999999999999645, -12.50000000000000000, 0.000000000000000000 ) ) ;
#32 = VERTEX_POINT ( 'NONE', #58 ) ;
#33 = CARTESIAN_POINT ( 'NONE',  ( -12.49999999999999645, -12.50000000000000000, 3.000000000000000000 ) ) ;
#34 = AXIS2_PLACEMENT_3D ( 'NONE', #214, #102, #104 ) ;
#35 = DATE_AND_TIME ( #167, #120 ) ;
#36 = MANIFOLD_SOLID_BREP ( 'Boss-Extrude1', #136 ) ;
#37 = LINE ( 'NONE', #198, #185 ) ;
#38 = PRODUCT_DEFINITION ( 'UNKNOWN', '', #94, #205 ) ;
#39 = ADVANCED_FACE ( 'NONE', ( #82 ), #78, .T. ) ;
#40 = EDGE_CURVE ( 'NONE', #141, #85, #223, .T. ) ;
#41 = LOCAL_TIME ( 16, 45, 3.000000000000000000, #226 ) ;
#42 = DIRECTION ( 'NONE',  ( 1.000000000000000000, 0.000000000000000000, 0.000000000000000000 ) ) ;
#43 = VECTOR ( 'NONE', #235, 1000.000000000000000 ) ;
#44 = CC_DESIGN_PERSON_AND_ORGANIZATION_ASSIGNMENT ( #73, #134, ( #94 ) ) ;
#45 = ORIENTED_EDGE ( 'NONE', *, *, #206, .T. ) ;
#46 = APPROVAL_ROLE ( '' ) ;
#47 = LINE ( 'NONE', #160, #95 ) ;
#48 = CARTESIAN_POINT ( 'NONE',  ( -12.50000000000000000, 12.50000000000000000, 0.000000000000000000 ) ) ;
#49 = CC_DESIGN_APPROVAL ( #202, ( #38 ) ) ;
#50 = EDGE_CURVE ( 'NONE', #168, #32, #54, .T. ) ;
#51 = APPROVAL_DATE_TIME ( #204, #92 ) ;
#52 = DATE_AND_TIME ( #179, #41 ) ;
#53 = CC_DESIGN_PERSON_AND_ORGANIZATION_ASSIGNMENT ( #218, #111, ( #94 ) ) ;
#54 = LINE ( 'NONE', #9, #197 ) ;
#55 = ORIENTED_EDGE ( 'NONE', *, *, #213, .T. ) ;
#56 = PERSON_AND_ORGANIZATION ( #227, #132 ) ;
#57 = VECTOR ( 'NONE', #199, 1000.000000000000000 ) ;
#58 = CARTESIAN_POINT ( 'NONE',  ( 12.50000000000000000, 12.50000000000000000, 0.000000000000000000 ) ) ;
#59 = CC_DESIGN_PERSON_AND_ORGANIZATION_ASSIGNMENT ( #173, #200, ( #38 ) ) ;
#60 = DIRECTION ( 'NONE',  ( -0.000000000000000000, 0.000000000000000000, 1.000000000000000000 ) ) ;
#61 = ORIENTED_EDGE ( 'NONE', *, *, #194, .T. ) ;
#62 =( LENGTH_UNIT ( ) NAMED_UNIT ( * ) SI_UNIT ( .MILLI., .METRE. ) );
#63 = DIRECTION ( 'NONE',  ( -1.000000000000000000, -0.000000000000000000, -0.000000000000000000 ) ) ;
#64 = DIRECTION ( 'NONE',  ( -1.000000000000000000, -1.387778780781445429E-16, 0.000000000000000000 ) ) ;
#65 = EDGE_LOOP ( 'NONE', ( #74, #121, #219, #55 ) ) ;
#66 =( NAMED_UNIT ( * ) PLANE_ANGLE_UNIT ( ) SI_UNIT ( $, .RADIAN. ) );
#67 = ORIENTED_EDGE ( 'NONE', *, *, #194, .F. ) ;
#68 = CARTESIAN_POINT ( 'NONE',  ( -12.49999999999999645, -12.50000000000000000, 0.000000000000000000 ) ) ;
#69 = CC_DESIGN_PERSON_AND_ORGANIZATION_ASSIGNMENT ( #56, #154, ( #228 ) ) ;
#70 = VECTOR ( 'NONE', #63, 1000.000000000000000 ) ;
#71 = SECURITY_CLASSIFICATION_LEVEL ( 'unclassified' ) ;
#72 = EDGE_LOOP ( 'NONE', ( #61, #237, #20, #22 ) ) ;
#73 = PERSON_AND_ORGANIZATION ( #227, #132 ) ;
#74 = ORIENTED_EDGE ( 'NONE', *, *, #222, .T. ) ;
#75 = APPROVAL_DATE_TIME ( #52, #202 ) ;
#76 = ORIENTED_EDGE ( 'NONE', *, *, #222, .F. ) ;
#77 = ADVANCED_FACE ( 'NONE', ( #18 ), #142, .F. ) ;
#78 = PLANE ( 'NONE',  #127 ) ;
#79 = CC_DESIGN_DATE_AND_TIME_ASSIGNMENT ( #225, #113, ( #228 ) ) ;
#80 = PRODUCT_DEFINITION_SHAPE ( 'NONE', 'NONE',  #38 ) ;
#81 = PRODUCT_RELATED_PRODUCT_CATEGORY ( 'detail', '', ( #188 ) ) ;
#82 = FACE_OUTER_BOUND ( 'NONE', #72, .T. ) ;
#83 = DIRECTION ( 'NONE',  ( 0.000000000000000000, -0.000000000000000000, -1.000000000000000000 ) ) ;
#84 = MECHANICAL_CONTEXT ( 'NONE', #232, 'mechanical' ) ;
#85 = VERTEX_POINT ( 'NONE', #100 ) ;
#86 = ORIENTED_EDGE ( 'NONE', *, *, #40, .F. ) ;
#87 = DIRECTION ( 'NONE',  ( 1.000000000000000000, 0.000000000000000000, 0.000000000000000000 ) ) ;
#88 = DATE_TIME_ROLE ( 'creation_date' ) ;
#89 = LINE ( 'NONE', #122, #11 ) ;
#90 = AXIS2_PLACEMENT_3D ( 'NONE', #233, #15, #147 ) ;
#91 = APPROVAL_PERSON_ORGANIZATION ( #115, #202, #46 ) ;
#92 = APPROVAL ( #2, 'UNSPECIFIED' ) ;
#93 = CALENDAR_DATE ( 2021, 30, 6 ) ;
#94 = PRODUCT_DEFINITION_FORMATION_WITH_SPECIFIED_SOURCE ( 'ANY', '', #188, .NOT_KNOWN. ) ;
#95 = VECTOR ( 'NONE', #128, 1000.000000000000000 ) ;
#96 = EDGE_CURVE ( 'NONE', #177, #16, #89, .T. ) ;
#97 = CALENDAR_DATE ( 2021, 30, 6 ) ;
#98 = VECTOR ( 'NONE', #163, 1000.000000000000000 ) ;
#99 = APPROVAL ( #236, 'UNSPECIFIED' ) ;
#100 = CARTESIAN_POINT ( 'NONE',  ( 12.50000000000000355, -12.50000000000000000, 3.000000000000000000 ) ) ;
#101 = FACE_OUTER_BOUND ( 'NONE', #171, .T. ) ;
#102 = DIRECTION ( 'NONE',  ( 0.000000000000000000, 1.000000000000000000, 0.000000000000000000 ) ) ;
#103 = DIRECTION ( 'NONE',  ( 0.000000000000000000, 0.000000000000000000, 1.000000000000000000 ) ) ;
#104 = DIRECTION ( 'NONE',  ( 0.000000000000000000, -0.000000000000000000, 1.000000000000000000 ) ) ;
#105 = DIRECTION ( 'NONE',  ( -1.000000000000000000, -0.000000000000000000, -0.000000000000000000 ) ) ;
#106 = COORDINATED_UNIVERSAL_TIME_OFFSET ( 5, 0, .BEHIND. ) ;
#107 = CALENDAR_DATE ( 2021, 30, 6 ) ;
#108 = APPROVAL_STATUS ( 'not_yet_approved' ) ;
#109 = EDGE_CURVE ( 'NONE', #16, #153, #47, .T. ) ;
#110 = ORIENTED_EDGE ( 'NONE', *, *, #50, .T. ) ;
#111 = PERSON_AND_ORGANIZATION_ROLE ( 'design_supplier' ) ;
#112 = EDGE_CURVE ( 'NONE', #177, #141, #229, .T. ) ;
#113 = DATE_TIME_ROLE ( 'classification_date' ) ;
#114 = LOCAL_TIME ( 16, 45, 3.000000000000000000, #137 ) ;
#115 = PERSON_AND_ORGANIZATION ( #227, #132 ) ;
#116 = ADVANCED_FACE ( 'NONE', ( #27 ), #129, .F. ) ;
#117 = PERSON_AND_ORGANIZATION ( #227, #132 ) ;
#118 = CC_DESIGN_APPROVAL ( #99, ( #94 ) ) ;
#119 = ORIENTED_EDGE ( 'NONE', *, *, #109, .F. ) ;
#120 = LOCAL_TIME ( 16, 45, 3.000000000000000000, #106 ) ;
#121 = ORIENTED_EDGE ( 'NONE', *, *, #96, .F. ) ;
#122 = CARTESIAN_POINT ( 'NONE',  ( -12.50000000000000000, 12.50000000000000000, 3.000000000000000000 ) ) ;
#123 = CC_DESIGN_DATE_AND_TIME_ASSIGNMENT ( #211, #88, ( #38 ) ) ;
#124 = DIRECTION ( 'NONE',  ( 0.000000000000000000, -1.000000000000000000, 0.000000000000000000 ) ) ;
#125 = LINE ( 'NONE', #31, #57 ) ;
#126 = CARTESIAN_POINT ( 'NONE',  ( -12.50000000000000000, 12.50000000000000000, 3.000000000000000000 ) ) ;
#127 = AXIS2_PLACEMENT_3D ( 'NONE', #210, #60, #8 ) ;
#128 = DIRECTION ( 'NONE',  ( 1.387778780781445676E-16, -1.000000000000000000, 0.000000000000000000 ) ) ;
#129 = PLANE ( 'NONE',  #34 ) ;
#130 = CARTESIAN_POINT ( 'NONE',  ( 12.50000000000000355, -12.50000000000000000, 0.000000000000000000 ) ) ;
#131 = APPROVAL_ROLE ( '' ) ;
#132 = ORGANIZATION ( 'UNSPECIFIED', 'UNSPECIFIED', '' ) ;
#133 = CC_DESIGN_SECURITY_CLASSIFICATION ( #228, ( #94 ) ) ;
#134 = PERSON_AND_ORGANIZATION_ROLE ( 'creator' ) ;
#135 = APPROVAL_ROLE ( '' ) ;
#136 = CLOSED_SHELL ( 'NONE', ( #156, #77, #174, #116, #39, #25 ) ) ;
#137 = COORDINATED_UNIVERSAL_TIME_OFFSET ( 5, 0, .BEHIND. ) ;
#138 = ORIENTED_EDGE ( 'NONE', *, *, #213, .F. ) ;
#139 = PERSON_AND_ORGANIZATION ( #227, #132 ) ;
#140 = AXIS2_PLACEMENT_3D ( 'NONE', #193, #124, #83 ) ;
#141 = VERTEX_POINT ( 'NONE', #183 ) ;
#142 = PLANE ( 'NONE',  #140 ) ;
#143 = VECTOR ( 'NONE', #165, 1000.000000000000000 ) ;
#144 = DIRECTION ( 'NONE',  ( -0.000000000000000000, -0.000000000000000000, -1.000000000000000000 ) ) ;
#145 = DIRECTION ( 'NONE',  ( -1.387778780781445676E-16, 1.000000000000000000, -0.000000000000000000 ) ) ;
#146 = SHAPE_DEFINITION_REPRESENTATION ( #80, #19 ) ;
#147 = DIRECTION ( 'NONE',  ( -1.387778780781445429E-16, 1.000000000000000000, 0.000000000000000000 ) ) ;
#148 = APPLICATION_CONTEXT ( 'configuration controlled 3d designs of mechanical parts and assemblies' ) ;
#149 = CARTESIAN_POINT ( 'NONE',  ( 12.50000000000000000, 12.50000000000000000, 3.000000000000000000 ) ) ;
#150 = LINE ( 'NONE', #33, #43 ) ;
#151 = EDGE_CURVE ( 'NONE', #6, #177, #201, .T. ) ;
#152 = VECTOR ( 'NONE', #105, 1000.000000000000000 ) ;
#153 = VERTEX_POINT ( 'NONE', #68 ) ;
#154 = PERSON_AND_ORGANIZATION_ROLE ( 'classification_officer' ) ;
#155 = VECTOR ( 'NONE', #42, 1000.000000000000000 ) ;
#156 = ADVANCED_FACE ( 'NONE', ( #4 ), #30, .F. ) ;
#157 = ORIENTED_EDGE ( 'NONE', *, *, #1, .F. ) ;
#158 = DIRECTION ( 'NONE',  ( 1.000000000000000000, 0.000000000000000000, 0.000000000000000000 ) ) ;
#159 = COORDINATED_UNIVERSAL_TIME_OFFSET ( 5, 0, .BEHIND. ) ;
#160 = CARTESIAN_POINT ( 'NONE',  ( -12.50000000000000000, 12.50000000000000000, 0.000000000000000000 ) ) ;
#161 = EDGE_CURVE ( 'NONE', #153, #168, #125, .T. ) ;
#162 = LINE ( 'NONE', #149, #143 ) ;
#163 = DIRECTION ( 'NONE',  ( -0.000000000000000000, -0.000000000000000000, -1.000000000000000000 ) ) ;
#164 = DIRECTION ( 'NONE',  ( 1.387778780781445676E-16, -1.000000000000000000, 0.000000000000000000 ) ) ;
#165 = DIRECTION ( 'NONE',  ( -0.000000000000000000, -0.000000000000000000, -1.000000000000000000 ) ) ;
#166 = ORIENTED_EDGE ( 'NONE', *, *, #161, .F. ) ;
#167 = CALENDAR_DATE ( 2021, 30, 6 ) ;
#168 = VERTEX_POINT ( 'NONE', #130 ) ;
#169 = APPLICATION_PROTOCOL_DEFINITION ( 'international standard', 'config_control_design', 1994, #148 ) ;
#170 = EDGE_LOOP ( 'NONE', ( #203, #166, #119, #76 ) ) ;
#171 = EDGE_LOOP ( 'NONE', ( #224, #209, #217, #184 ) ) ;
#172 = CC_DESIGN_APPROVAL ( #92, ( #228 ) ) ;
#173 = PERSON_AND_ORGANIZATION ( #227, #132 ) ;
#174 = ADVANCED_FACE ( 'NONE', ( #101 ), #221, .F. ) ;
#175 = AXIS2_PLACEMENT_3D ( 'NONE', #14, #64, #216 ) ;
#176 = LOCAL_TIME ( 16, 45, 3.000000000000000000, #191 ) ;
#177 = VERTEX_POINT ( 'NONE', #12 ) ;
#178 = DIRECTION ( 'NONE',  ( -0.000000000000000000, 0.000000000000000000, 1.000000000000000000 ) ) ;
#179 = CALENDAR_DATE ( 2021, 30, 6 ) ;
#180 = CARTESIAN_POINT ( 'NONE',  ( -12.50000000000000000, 12.50000000000000000, 0.000000000000000000 ) ) ;
#181 = APPLICATION_PROTOCOL_DEFINITION ( 'international standard', 'config_control_design', 1994, #232 ) ;
#182 = ORIENTED_EDGE ( 'NONE', *, *, #1, .T. ) ;
#183 = CARTESIAN_POINT ( 'NONE',  ( -12.49999999999999645, -12.50000000000000000, 3.000000000000000000 ) ) ;
#184 = ORIENTED_EDGE ( 'NONE', *, *, #96, .T. ) ;
#185 = VECTOR ( 'NONE', #145, 1000.000000000000000 ) ;
#186 = LINE ( 'NONE', #26, #98 ) ;
#187 = CC_DESIGN_PERSON_AND_ORGANIZATION_ASSIGNMENT ( #139, #220, ( #188 ) ) ;
#188 = PRODUCT ( 'Web Model 13402_13407', 'Web Model 13402_13407', '', ( #84 ) ) ;
#189 =( GEOMETRIC_REPRESENTATION_CONTEXT ( 3 ) GLOBAL_UNCERTAINTY_ASSIGNED_CONTEXT ( ( #13 ) ) GLOBAL_UNIT_ASSIGNED_CONTEXT ( ( #62, #66, #196 ) ) REPRESENTATION_CONTEXT ( 'NONE', 'WORKASPACE' ) );
#190 = CARTESIAN_POINT ( 'NONE',  ( 0.000000000000000000, 0.000000000000000000, 0.000000000000000000 ) ) ;
#191 = COORDINATED_UNIVERSAL_TIME_OFFSET ( 5, 0, .BEHIND. ) ;
#192 = LINE ( 'NONE', #48, #70 ) ;
#193 = CARTESIAN_POINT ( 'NONE',  ( -12.50000000000000000, 12.50000000000000000, 3.000000000000000000 ) ) ;
#194 = EDGE_CURVE ( 'NONE', #85, #6, #37, .T. ) ;
#195 = CARTESIAN_POINT ( 'NONE',  ( -12.49999999999999645, -12.50000000000000000, 3.000000000000000000 ) ) ;
#196 =( NAMED_UNIT ( * ) SI_UNIT ( $, .STERADIAN. ) SOLID_ANGLE_UNIT ( ) );
#197 = VECTOR ( 'NONE', #212, 1000.000000000000000 ) ;
#198 = CARTESIAN_POINT ( 'NONE',  ( 12.50000000000000000, 12.50000000000000000, 3.000000000000000000 ) ) ;
#199 = DIRECTION ( 'NONE',  ( 1.000000000000000000, 0.000000000000000000, 0.000000000000000000 ) ) ;
#200 = PERSON_AND_ORGANIZATION_ROLE ( 'creator' ) ;
#201 = LINE ( 'NONE', #126, #152 ) ;
#202 = APPROVAL ( #108, 'UNSPECIFIED' ) ;
#203 = ORIENTED_EDGE ( 'NONE', *, *, #50, .F. ) ;
#204 = DATE_AND_TIME ( #93, #114 ) ;
#205 = DESIGN_CONTEXT ( 'detailed design', #148, 'design' ) ;
#206 = EDGE_CURVE ( 'NONE', #141, #153, #150, .T. ) ;
#207 = APPROVAL_PERSON_ORGANIZATION ( #117, #99, #131 ) ;
#208 = EDGE_LOOP ( 'NONE', ( #110, #138, #67, #182 ) ) ;
#209 = ORIENTED_EDGE ( 'NONE', *, *, #206, .F. ) ;
#210 = CARTESIAN_POINT ( 'NONE',  ( 0.000000000000000000, 0.000000000000000000, 3.000000000000000000 ) ) ;
#211 = DATE_AND_TIME ( #107, #21 ) ;
#212 = DIRECTION ( 'NONE',  ( -1.387778780781445676E-16, 1.000000000000000000, -0.000000000000000000 ) ) ;
#213 = EDGE_CURVE ( 'NONE', #6, #32, #162, .T. ) ;
#214 = CARTESIAN_POINT ( 'NONE',  ( -12.49999999999999645, -12.50000000000000000, 3.000000000000000000 ) ) ;
#215 = CARTESIAN_POINT ( 'NONE',  ( 0.000000000000000000, 0.000000000000000000, 0.000000000000000000 ) ) ;
#216 = DIRECTION ( 'NONE',  ( 1.387778780781445429E-16, -1.000000000000000000, 0.000000000000000000 ) ) ;
#217 = ORIENTED_EDGE ( 'NONE', *, *, #112, .F. ) ;
#218 = PERSON_AND_ORGANIZATION ( #227, #132 ) ;
#219 = ORIENTED_EDGE ( 'NONE', *, *, #151, .F. ) ;
#220 = PERSON_AND_ORGANIZATION_ROLE ( 'design_owner' ) ;
#221 = PLANE ( 'NONE',  #90 ) ;
#222 = EDGE_CURVE ( 'NONE', #32, #16, #192, .T. ) ;
#223 = LINE ( 'NONE', #195, #155 ) ;
#224 = ORIENTED_EDGE ( 'NONE', *, *, #109, .T. ) ;
#225 = DATE_AND_TIME ( #97, #176 ) ;
#226 = COORDINATED_UNIVERSAL_TIME_OFFSET ( 5, 0, .BEHIND. ) ;
#227 = PERSON ( 'UNSPECIFIED', 'UNSPECIFIED', 'UNSPECIFIED', ('UNSPECIFIED'), ('UNSPECIFIED'), ('UNSPECIFIED') ) ;
#228 = SECURITY_CLASSIFICATION ( '', '', #71 ) ;
#229 = LINE ( 'NONE', #231, #7 ) ;
#230 = AXIS2_PLACEMENT_3D ( 'NONE', #190, #178, #158 ) ;
#231 = CARTESIAN_POINT ( 'NONE',  ( -12.50000000000000000, 12.50000000000000000, 3.000000000000000000 ) ) ;
#232 = APPLICATION_CONTEXT ( 'configuration controlled 3d designs of mechanical parts and assemblies' ) ;
#233 = CARTESIAN_POINT ( 'NONE',  ( -12.50000000000000000, 12.50000000000000000, 3.000000000000000000 ) ) ;
#234 = ORIENTED_EDGE ( 'NONE', *, *, #161, .T. ) ;
#235 = DIRECTION ( 'NONE',  ( -0.000000000000000000, -0.000000000000000000, -1.000000000000000000 ) ) ;
#236 = APPROVAL_STATUS ( 'not_yet_approved' ) ;
#237 = ORIENTED_EDGE ( 'NONE', *, *, #151, .T. ) ;
ENDSEC;
END-ISO-10303-21;
