ISO-10303-21;
HEADER;
FILE_DESCRIPTION (( 'STEP AP203' ),
    '1' );
FILE_NAME ('24998-E0W.STEP',
    '2015-04-28T20:38:27',
    ( 'Admin' ),
    ( '' ),
    'SwSTEP 2.0',
    'SolidWorks 2014',
    '' );
FILE_SCHEMA (( 'CONFIG_CONTROL_DESIGN' ));
ENDSEC;

DATA;
#1 = VERTEX_POINT ( 'NONE', #43 ) ;
#2 = VECTOR ( 'NONE', #69, 1000.000000000000000 ) ;
#3 = ORIENTED_EDGE ( 'NONE', *, *, #42, .F. ) ;
#4 = EDGE_CURVE ( 'NONE', #55, #10, #144, .T. ) ;
#5 = TOROIDAL_SURFACE ( 'NONE', #196, 0.006000391355407211400, 18.39999999999999900 ) ;
#6 = ORIENTED_EDGE ( 'NONE', *, *, #258, .T. ) ;
#7 = APPROVAL ( #226, 'UNSPECIFIED' ) ;
#8 = AXIS2_PLACEMENT_3D ( 'NONE', #216, #166, #138 ) ;
#9 = DIRECTION ( 'NONE',  ( 1.000000000000000000, 0.0000000000000000000, 0.0000000000000000000 ) ) ;
#10 = VERTEX_POINT ( 'NONE', #133 ) ;
#11 = CARTESIAN_POINT ( 'NONE',  ( 0.0000000000000000000, 0.0000000000000000000, -3.540000000000000000 ) ) ;
#12 = CARTESIAN_POINT ( 'NONE',  ( -12.69999999999999800, 1.555301434917138200E-015, -1.548064691731229700 ) ) ;
#13 = ORIENTED_EDGE ( 'NONE', *, *, #200, .F. ) ;
#14 = CARTESIAN_POINT ( 'NONE',  ( 0.0000000000000000000, 0.0000000000000000000, -1.548064691731229700 ) ) ;
#15 = ORIENTED_EDGE ( 'NONE', *, *, #170, .F. ) ;
#16 = ORIENTED_EDGE ( 'NONE', *, *, #4, .T. ) ;
#17 = CC_DESIGN_PERSON_AND_ORGANIZATION_ASSIGNMENT ( #96, #280, ( #165 ) ) ;
#18 = ORIENTED_EDGE ( 'NONE', *, *, #184, .F. ) ;
#19 = VERTEX_POINT ( 'NONE', #48 ) ;
#20 = ORIENTED_EDGE ( 'NONE', *, *, #221, .T. ) ;
#21 = ORIENTED_EDGE ( 'NONE', *, *, #71, .F. ) ;
#22 = ORIENTED_EDGE ( 'NONE', *, *, #184, .T. ) ;
#23 = ORIENTED_EDGE ( 'NONE', *, *, #4, .F. ) ;
#24 = AXIS2_PLACEMENT_3D ( 'NONE', #246, #249, #9 ) ;
#25 = CARTESIAN_POINT ( 'NONE',  ( -12.69999999999999800, 0.0000000000000000000, -1.548064691731229700 ) ) ;
#26 = DIRECTION ( 'NONE',  ( -0.0000000000000000000, -0.0000000000000000000, 1.000000000000000000 ) ) ;
#27 = DIRECTION ( 'NONE',  ( 1.000000000000000000, 0.0000000000000000000, 0.0000000000000000000 ) ) ;
#28 = ORIENTED_EDGE ( 'NONE', *, *, #221, .F. ) ;
#29 = ORIENTED_EDGE ( 'NONE', *, *, #78, .F. ) ;
#30 = ADVANCED_FACE ( 'NONE', ( #207 ), #283, .T. ) ;
#31 = ORIENTED_EDGE ( 'NONE', *, *, #200, .T. ) ;
#32 = VERTEX_POINT ( 'NONE', #12 ) ;
#33 = PRODUCT_DEFINITION_SHAPE ( 'NONE', 'NONE',  #51 ) ;
#34 = ORIENTED_EDGE ( 'NONE', *, *, #102, .F. ) ;
#35 = VERTEX_POINT ( 'NONE', #60 ) ;
#36 = ORIENTED_EDGE ( 'NONE', *, *, #241, .F. ) ;
#37 = ORIENTED_EDGE ( 'NONE', *, *, #118, .F. ) ;
#38 = ORIENTED_EDGE ( 'NONE', *, *, #42, .T. ) ;
#39 = ADVANCED_FACE ( 'NONE', ( #140 ), #208, .T. ) ;
#40 = ORIENTED_EDGE ( 'NONE', *, *, #102, .T. ) ;
#41 = EDGE_LOOP ( 'NONE', ( #28, #90, #40, #13 ) ) ;
#42 = EDGE_CURVE ( 'NONE', #10, #35, #242, .T. ) ;
#43 = CARTESIAN_POINT ( 'NONE',  ( -12.55857864376268800, 1.546641874354783400E-015, -3.540000000000001400 ) ) ;
#44 = CARTESIAN_POINT ( 'NONE',  ( 0.0000000000000000000, 0.0000000000000000000, -1.406643335493916500 ) ) ;
#45 = VERTEX_POINT ( 'NONE', #110 ) ;
#46 = DIRECTION ( 'NONE',  ( -0.0000000000000000000, -0.0000000000000000000, 1.000000000000000000 ) ) ;
#47 = DIRECTION ( 'NONE',  ( 1.000000000000000000, 0.0000000000000000000, 0.0000000000000000000 ) ) ;
#48 = CARTESIAN_POINT ( 'NONE',  ( 12.69999999999999800, 0.0000000000000000000, -1.548064691731229700 ) ) ;
#49 = DIRECTION ( 'NONE',  ( 0.0000000000000000000, 0.0000000000000000000, 1.000000000000000000 ) ) ;
#50 = CIRCLE ( 'NONE', #256, 12.69999999999999800 ) ;
#51 = PRODUCT_DEFINITION ( 'UNKNOWN', '', #165, #83 ) ;
#52 = ORIENTED_EDGE ( 'NONE', *, *, #277, .T. ) ;
#53 = EDGE_LOOP ( 'NONE', ( #52, #84, #37, #21 ) ) ;
#54 = CARTESIAN_POINT ( 'NONE',  ( 12.55857864376268800, 0.0000000000000000000, -3.540000000000001400 ) ) ;
#55 = VERTEX_POINT ( 'NONE', #186 ) ;
#56 = CARTESIAN_POINT ( 'NONE',  ( -12.69999999999999900, 1.555301434917138400E-015, -3.398578643762695300 ) ) ;
#57 = ORIENTED_EDGE ( 'NONE', *, *, #258, .F. ) ;
#58 = DIRECTION ( 'NONE',  ( -0.0000000000000000000, -0.0000000000000000000, 1.000000000000000000 ) ) ;
#59 = CARTESIAN_POINT ( 'NONE',  ( 0.0000000000000000000, 0.0000000000000000000, -3.398578643762695300 ) ) ;
#60 = CARTESIAN_POINT ( 'NONE',  ( 0.0000000000000000000, 0.0000000000000000000, 3.540000000000000000 ) ) ;
#61 = CC_DESIGN_SECURITY_CLASSIFICATION ( #292, ( #165 ) ) ;
#62 = ORIENTED_EDGE ( 'NONE', *, *, #120, .T. ) ;
#63 = AXIS2_PLACEMENT_3D ( 'NONE', #59, #58, #206 ) ;
#64 = ORIENTED_EDGE ( 'NONE', *, *, #145, .F. ) ;
#65 = FACE_OUTER_BOUND ( 'NONE', #143, .T. ) ;
#66 = PERSON_AND_ORGANIZATION ( #260, #198 ) ;
#67 = PERSON_AND_ORGANIZATION ( #260, #198 ) ;
#68 = EDGE_LOOP ( 'NONE', ( #36, #22, #87, #15 ) ) ;
#69 = DIRECTION ( 'NONE',  ( -0.7071067811865345800, 0.0000000000000000000, -0.7071067811865604500 ) ) ;
#70 = EDGE_LOOP ( 'NONE', ( #93, #62, #3 ) ) ;
#71 = EDGE_CURVE ( 'NONE', #169, #19, #134, .T. ) ;
#72 = AXIS2_PLACEMENT_3D ( 'NONE', #237, #135, #217 ) ;
#73 = AXIS2_PLACEMENT_3D ( 'NONE', #11, #276, #189 ) ;
#74 = ORIENTED_EDGE ( 'NONE', *, *, #120, .F. ) ;
#75 = EDGE_LOOP ( 'NONE', ( #74, #16, #38 ) ) ;
#76 = UNCERTAINTY_MEASURE_WITH_UNIT (LENGTH_MEASURE( 1.000000000000000100E-005 ), #119, 'distance_accuracy_value', 'NONE');
#77 = PERSON_AND_ORGANIZATION ( #260, #198 ) ;
#78 = EDGE_CURVE ( 'NONE', #45, #1, #151, .T. ) ;
#79 = CARTESIAN_POINT ( 'NONE',  ( 12.69999999999999900, 0.0000000000000000000, 35.17507380289622200 ) ) ;
#80 = CIRCLE ( 'NONE', #219, 12.69999999999999800 ) ;
#81 = EDGE_LOOP ( 'NONE', ( #64, #31, #88, #57 ) ) ;
#82 = LOCAL_TIME ( 16, 38, 27.00000000000000000, #244 ) ;
#83 = DESIGN_CONTEXT ( 'detailed design', #288, 'design' ) ;
#84 = ORIENTED_EDGE ( 'NONE', *, *, #145, .T. ) ;
#85 = CC_DESIGN_PERSON_AND_ORGANIZATION_ASSIGNMENT ( #263, #191, ( #292 ) ) ;
#86 = ORIENTED_EDGE ( 'NONE', *, *, #277, .F. ) ;
#87 = ORIENTED_EDGE ( 'NONE', *, *, #118, .T. ) ;
#88 = ORIENTED_EDGE ( 'NONE', *, *, #71, .T. ) ;
#89 = DIRECTION ( 'NONE',  ( 1.224646799147353200E-016, 1.000000000000000000, 0.0000000000000000000 ) ) ;
#90 = ORIENTED_EDGE ( 'NONE', *, *, #99, .T. ) ;
#91 = EDGE_LOOP ( 'NONE', ( #18, #23, #92, #6 ) ) ;
#92 = ORIENTED_EDGE ( 'NONE', *, *, #170, .T. ) ;
#93 = ORIENTED_EDGE ( 'NONE', *, *, #241, .T. ) ;
#94 = ORIENTED_EDGE ( 'NONE', *, *, #99, .F. ) ;
#95 = AXIS2_PLACEMENT_3D ( 'NONE', #203, #121, #271 ) ;
#96 = PERSON_AND_ORGANIZATION ( #260, #198 ) ;
#97 = CYLINDRICAL_SURFACE ( 'NONE', #95, 12.69999999999999900 ) ;
#98 = CARTESIAN_POINT ( 'NONE',  ( 0.0000000000000000000, 0.0000000000000000000, -1.548064691731229700 ) ) ;
#99 = EDGE_CURVE ( 'NONE', #1, #45, #173, .T. ) ;
#100 = LINE ( 'NONE', #225, #126 ) ;
#101 = DIRECTION ( 'NONE',  ( 1.000000000000000000, 0.0000000000000000000, 0.0000000000000000000 ) ) ;
#102 = EDGE_CURVE ( 'NONE', #45, #169, #201, .T. ) ;
#103 = VERTEX_POINT ( 'NONE', #56 ) ;
#104 = DIRECTION ( 'NONE',  ( -1.000000000000000000, 0.0000000000000000000, 0.0000000000000000000 ) ) ;
#105 = VECTOR ( 'NONE', #193, 1000.000000000000000 ) ;
#106 = CIRCLE ( 'NONE', #248, 18.39999999999999900 ) ;
#107 = AXIS2_PLACEMENT_3D ( 'NONE', #192, #278, #251 ) ;
#108 = APPROVAL ( #155, 'UNSPECIFIED' ) ;
#109 = CARTESIAN_POINT ( 'NONE',  ( 0.0000000000000000000, 0.0000000000000000000, -3.540000000000001400 ) ) ;
#110 = CARTESIAN_POINT ( 'NONE',  ( 12.55857864376268800, 0.0000000000000000000, -3.540000000000001400 ) ) ;
#111 = CALENDAR_DATE ( 2015, 28, 4 ) ;
#112 = DIRECTION ( 'NONE',  ( 1.000000000000000000, 0.0000000000000000000, 0.0000000000000000000 ) ) ;
#113 = DIRECTION ( 'NONE',  ( 0.0000000000000000000, -1.000000000000000000, 0.0000000000000000000 ) ) ;
#114 = AXIS2_PLACEMENT_3D ( 'NONE', #286, #259, #27 ) ;
#115 = DIRECTION ( 'NONE',  ( -0.0000000000000000000, -0.0000000000000000000, 1.000000000000000000 ) ) ;
#116 = AXIS2_PLACEMENT_3D ( 'NONE', #44, #46, #47 ) ;
#117 = DATE_AND_TIME ( #157, #82 ) ;
#118 = EDGE_CURVE ( 'NONE', #19, #32, #50, .T. ) ;
#119 =( LENGTH_UNIT ( ) NAMED_UNIT ( * ) SI_UNIT ( .MILLI., .METRE. ) );
#120 = EDGE_CURVE ( 'NONE', #55, #35, #106, .T. ) ;
#121 = DIRECTION ( 'NONE',  ( -0.0000000000000000000, -0.0000000000000000000, 1.000000000000000000 ) ) ;
#122 = COORDINATED_UNIVERSAL_TIME_OFFSET ( 5, 0, .BEHIND. ) ;
#123 = COORDINATED_UNIVERSAL_TIME_OFFSET ( 5, 0, .BEHIND. ) ;
#124 = ADVANCED_FACE ( 'NONE', ( #293 ), #97, .T. ) ;
#125 = CONICAL_SURFACE ( 'NONE', #158, 12.55857864376268800, 0.7853981633974667100 ) ;
#126 = VECTOR ( 'NONE', #160, 1000.000000000000000 ) ;
#127 = SHAPE_DEFINITION_REPRESENTATION ( #33, #150 ) ;
#128 = CARTESIAN_POINT ( 'NONE',  ( 0.0000000000000000000, 0.0000000000000000000, -3.540000000000001400 ) ) ;
#129 = FACE_OUTER_BOUND ( 'NONE', #81, .T. ) ;
#130 = LOCAL_TIME ( 16, 38, 27.00000000000000000, #183 ) ;
#131 = CALENDAR_DATE ( 2015, 28, 4 ) ;
#132 = APPROVAL_PERSON_ORGANIZATION ( #287, #215, #209 ) ;
#133 = CARTESIAN_POINT ( 'NONE',  ( 12.55857864376269000, 0.0000000000000000000, -1.406643335493917400 ) ) ;
#134 = LINE ( 'NONE', #79, #295 ) ;
#135 = DIRECTION ( 'NONE',  ( -0.0000000000000000000, -0.0000000000000000000, 1.000000000000000000 ) ) ;
#136 = APPROVAL_DATE_TIME ( #254, #215 ) ;
#137 = CALENDAR_DATE ( 2015, 28, 4 ) ;
#138 = DIRECTION ( 'NONE',  ( -1.000000000000000000, 0.0000000000000000000, 0.0000000000000000000 ) ) ;
#139 = CARTESIAN_POINT ( 'NONE',  ( 0.0000000000000000000, 0.0000000000000000000, 35.17507380289622200 ) ) ;
#140 = FACE_OUTER_BOUND ( 'NONE', #75, .T. ) ;
#141 = MANIFOLD_SOLID_BREP ( '24998-001-1-solid1', #161 ) ;
#142 = PERSON_AND_ORGANIZATION ( #260, #198 ) ;
#143 = EDGE_LOOP ( 'NONE', ( #29, #94 ) ) ;
#144 = CIRCLE ( 'NONE', #116, 12.55857864376269000 ) ;
#145 = EDGE_CURVE ( 'NONE', #103, #32, #182, .T. ) ;
#146 = APPROVAL_ROLE ( '' ) ;
#147 = DIRECTION ( 'NONE',  ( 1.000000000000000000, 0.0000000000000000000, 0.0000000000000000000 ) ) ;
#148 = CARTESIAN_POINT ( 'NONE',  ( -12.55857864376268800, 1.537982313792428500E-015, -3.540000000000001400 ) ) ;
#149 = CARTESIAN_POINT ( 'NONE',  ( 0.0000000000000000000, 0.0000000000000000000, -1.548064691731229700 ) ) ;
#150 = ADVANCED_BREP_SHAPE_REPRESENTATION ( '24998-E0W', ( #141, #180 ), #294 ) ;
#151 = CIRCLE ( 'NONE', #218, 12.55857864376268800 ) ;
#152 = LOCAL_TIME ( 16, 38, 27.00000000000000000, #122 ) ;
#153 = DIRECTION ( 'NONE',  ( -0.0000000000000000000, -0.0000000000000000000, 1.000000000000000000 ) ) ;
#154 = CARTESIAN_POINT ( 'NONE',  ( -12.69999999999999900, 1.555301434917138400E-015, 35.17507380289622200 ) ) ;
#155 = APPROVAL_STATUS ( 'not_yet_approved' ) ;
#156 = DIRECTION ( 'NONE',  ( 1.000000000000000000, 0.0000000000000000000, 0.0000000000000000000 ) ) ;
#157 = CALENDAR_DATE ( 2015, 28, 4 ) ;
#158 = AXIS2_PLACEMENT_3D ( 'NONE', #128, #26, #228 ) ;
#159 = FACE_OUTER_BOUND ( 'NONE', #70, .T. ) ;
#160 = DIRECTION ( 'NONE',  ( 0.7071067811865345800, 8.659560562354775100E-017, -0.7071067811865604500 ) ) ;
#161 = CLOSED_SHELL ( 'NONE', ( #30, #124, #275, #202, #39, #168, #240, #299, #300 ) ) ;
#162 = PERSON_AND_ORGANIZATION_ROLE ( 'creator' ) ;
#163 = APPROVAL_PERSON_ORGANIZATION ( #77, #108, #146 ) ;
#164 = COORDINATED_UNIVERSAL_TIME_OFFSET ( 5, 0, .BEHIND. ) ;
#165 = PRODUCT_DEFINITION_FORMATION_WITH_SPECIFIED_SOURCE ( 'ANY', '', #167, .NOT_KNOWN. ) ;
#166 = DIRECTION ( 'NONE',  ( 0.0000000000000000000, 0.0000000000000000000, -1.000000000000000000 ) ) ;
#167 = PRODUCT ( '24998-E0W', '24998-E0W', '', ( #272 ) ) ;
#168 = ADVANCED_FACE ( 'NONE', ( #65 ), #250, .F. ) ;
#169 = VERTEX_POINT ( 'NONE', #235 ) ;
#170 = EDGE_CURVE ( 'NONE', #55, #32, #211, .T. ) ;
#171 = LINE ( 'NONE', #148, #105 ) ;
#172 = FACE_OUTER_BOUND ( 'NONE', #297, .T. ) ;
#173 = CIRCLE ( 'NONE', #24, 12.55857864376268800 ) ;
#174 = APPROVAL_ROLE ( '' ) ;
#175 = CIRCLE ( 'NONE', #63, 12.69999999999999900 ) ;
#176 = APPROVAL_DATE_TIME ( #296, #108 ) ;
#177 = FACE_OUTER_BOUND ( 'NONE', #41, .T. ) ;
#178 = DIRECTION ( 'NONE',  ( -0.0000000000000000000, -0.0000000000000000000, 1.000000000000000000 ) ) ;
#179 = CC_DESIGN_DATE_AND_TIME_ASSIGNMENT ( #223, #279, ( #292 ) ) ;
#180 = AXIS2_PLACEMENT_3D ( 'NONE', #213, #49, #267 ) ;
#181 = DIRECTION ( 'NONE',  ( 1.000000000000000000, 0.0000000000000000000, 0.0000000000000000000 ) ) ;
#182 = LINE ( 'NONE', #154, #224 ) ;
#183 = COORDINATED_UNIVERSAL_TIME_OFFSET ( 5, 0, .BEHIND. ) ;
#184 = EDGE_CURVE ( 'NONE', #10, #19, #100, .T. ) ;
#185 = APPLICATION_PROTOCOL_DEFINITION ( 'international standard', 'config_control_design', 1994, #233 ) ;
#186 = CARTESIAN_POINT ( 'NONE',  ( -12.55857864376269000, 1.537982313792428500E-015, -1.406643335493917400 ) ) ;
#187 = CONICAL_SURFACE ( 'NONE', #114, 12.55857864376268800, 0.7853981633974667100 ) ;
#188 = CC_DESIGN_PERSON_AND_ORGANIZATION_ASSIGNMENT ( #66, #162, ( #51 ) ) ;
#189 = DIRECTION ( 'NONE',  ( 1.000000000000000000, 0.0000000000000000000, 0.0000000000000000000 ) ) ;
#190 = PERSON_AND_ORGANIZATION_ROLE ( 'creator' ) ;
#191 = PERSON_AND_ORGANIZATION_ROLE ( 'classification_officer' ) ;
#192 = CARTESIAN_POINT ( 'NONE',  ( 0.0000000000000000000, 0.0000000000000000000, -14.85999902161147900 ) ) ;
#193 = DIRECTION ( 'NONE',  ( -0.7071067811865605600, 8.659560562355093100E-017, 0.7071067811865344700 ) ) ;
#194 = APPROVAL_STATUS ( 'not_yet_approved' ) ;
#195 = DIRECTION ( 'NONE',  ( -0.0000000000000000000, -0.0000000000000000000, 1.000000000000000000 ) ) ;
#196 = AXIS2_PLACEMENT_3D ( 'NONE', #265, #197, #156 ) ;
#197 = DIRECTION ( 'NONE',  ( -0.0000000000000000000, -0.0000000000000000000, 1.000000000000000000 ) ) ;
#198 = ORGANIZATION ( 'UNSPECIFIED', 'UNSPECIFIED', '' ) ;
#199 = VECTOR ( 'NONE', #231, 1000.000000000000000 ) ;
#200 = EDGE_CURVE ( 'NONE', #103, #169, #227, .T. ) ;
#201 = LINE ( 'NONE', #54, #199 ) ;
#202 = ADVANCED_FACE ( 'NONE', ( #159 ), #5, .T. ) ;
#203 = CARTESIAN_POINT ( 'NONE',  ( 0.0000000000000000000, 0.0000000000000000000, 35.17507380289622200 ) ) ;
#204 = SECURITY_CLASSIFICATION_LEVEL ( 'unclassified' ) ;
#205 = DIRECTION ( 'NONE',  ( -1.000000000000000000, 1.224646799147353200E-016, 0.0000000000000000000 ) ) ;
#206 = DIRECTION ( 'NONE',  ( 1.000000000000000000, 0.0000000000000000000, 0.0000000000000000000 ) ) ;
#207 = FACE_OUTER_BOUND ( 'NONE', #68, .T. ) ;
#208 = TOROIDAL_SURFACE ( 'NONE', #107, 0.006000391355407211400, 18.39999999999999900 ) ;
#209 = APPROVAL_ROLE ( '' ) ;
#210 = PERSON_AND_ORGANIZATION ( #260, #198 ) ;
#211 = LINE ( 'NONE', #25, #2 ) ;
#212 =( NAMED_UNIT ( * ) PLANE_ANGLE_UNIT ( ) SI_UNIT ( $, .RADIAN. ) );
#213 = CARTESIAN_POINT ( 'NONE',  ( 0.0000000000000000000, 0.0000000000000000000, 0.0000000000000000000 ) ) ;
#214 = APPLICATION_PROTOCOL_DEFINITION ( 'international standard', 'config_control_design', 1994, #288 ) ;
#215 = APPROVAL ( #194, 'UNSPECIFIED' ) ;
#216 = CARTESIAN_POINT ( 'NONE',  ( 0.0000000000000000000, 0.0000000000000000000, -1.548064691731229700 ) ) ;
#217 = DIRECTION ( 'NONE',  ( 1.000000000000000000, 0.0000000000000000000, 0.0000000000000000000 ) ) ;
#218 = AXIS2_PLACEMENT_3D ( 'NONE', #109, #239, #112 ) ;
#219 = AXIS2_PLACEMENT_3D ( 'NONE', #149, #115, #101 ) ;
#220 =( NAMED_UNIT ( * ) SI_UNIT ( $, .STERADIAN. ) SOLID_ANGLE_UNIT ( ) );
#221 = EDGE_CURVE ( 'NONE', #1, #103, #171, .T. ) ;
#222 = ORIENTED_EDGE ( 'NONE', *, *, #78, .T. ) ;
#223 = DATE_AND_TIME ( #273, #130 ) ;
#224 = VECTOR ( 'NONE', #232, 1000.000000000000000 ) ;
#225 = CARTESIAN_POINT ( 'NONE',  ( 12.69999999999999800, 1.555301434917138200E-015, -1.548064691731229700 ) ) ;
#226 = APPROVAL_STATUS ( 'not_yet_approved' ) ;
#227 = CIRCLE ( 'NONE', #252, 12.69999999999999900 ) ;
#228 = DIRECTION ( 'NONE',  ( 1.000000000000000000, 0.0000000000000000000, 0.0000000000000000000 ) ) ;
#229 = LOCAL_TIME ( 16, 38, 27.00000000000000000, #164 ) ;
#230 = CARTESIAN_POINT ( 'NONE',  ( 0.006000391355407211400, 0.0000000000000000000, -14.85999902161147900 ) ) ;
#231 = DIRECTION ( 'NONE',  ( 0.7071067811865605600, 0.0000000000000000000, 0.7071067811865344700 ) ) ;
#232 = DIRECTION ( 'NONE',  ( -0.0000000000000000000, -0.0000000000000000000, 1.000000000000000000 ) ) ;
#233 = APPLICATION_CONTEXT ( 'configuration controlled 3d designs of mechanical parts and assemblies' ) ;
#234 = PERSON_AND_ORGANIZATION_ROLE ( 'design_owner' ) ;
#235 = CARTESIAN_POINT ( 'NONE',  ( 12.69999999999999900, 0.0000000000000000000, -3.398578643762695300 ) ) ;
#236 = FACE_OUTER_BOUND ( 'NONE', #91, .T. ) ;
#237 = CARTESIAN_POINT ( 'NONE',  ( 0.0000000000000000000, 0.0000000000000000000, -1.406643335493916500 ) ) ;
#238 = CC_DESIGN_APPROVAL ( #108, ( #51 ) ) ;
#239 = DIRECTION ( 'NONE',  ( -0.0000000000000000000, -0.0000000000000000000, 1.000000000000000000 ) ) ;
#240 = ADVANCED_FACE ( 'NONE', ( #177 ), #187, .T. ) ;
#241 = EDGE_CURVE ( 'NONE', #10, #55, #261, .T. ) ;
#242 = CIRCLE ( 'NONE', #253, 18.39999999999999500 ) ;
#243 = CONICAL_SURFACE ( 'NONE', #255, 12.69999999999999800, 0.7853981633974300700 ) ;
#244 = COORDINATED_UNIVERSAL_TIME_OFFSET ( 5, 0, .BEHIND. ) ;
#245 = APPROVAL_DATE_TIME ( #117, #7 ) ;
#246 = CARTESIAN_POINT ( 'NONE',  ( 0.0000000000000000000, 0.0000000000000000000, -3.540000000000001400 ) ) ;
#247 = LOCAL_TIME ( 16, 38, 27.00000000000000000, #123 ) ;
#248 = AXIS2_PLACEMENT_3D ( 'NONE', #270, #89, #205 ) ;
#249 = DIRECTION ( 'NONE',  ( -0.0000000000000000000, -0.0000000000000000000, 1.000000000000000000 ) ) ;
#250 = PLANE ( 'NONE',  #73 ) ;
#251 = DIRECTION ( 'NONE',  ( 1.000000000000000000, 0.0000000000000000000, 0.0000000000000000000 ) ) ;
#252 = AXIS2_PLACEMENT_3D ( 'NONE', #257, #301, #147 ) ;
#253 = AXIS2_PLACEMENT_3D ( 'NONE', #230, #113, #285 ) ;
#254 = DATE_AND_TIME ( #131, #247 ) ;
#255 = AXIS2_PLACEMENT_3D ( 'NONE', #14, #269, #104 ) ;
#256 = AXIS2_PLACEMENT_3D ( 'NONE', #98, #153, #181 ) ;
#257 = CARTESIAN_POINT ( 'NONE',  ( 0.0000000000000000000, 0.0000000000000000000, -3.398578643762695300 ) ) ;
#258 = EDGE_CURVE ( 'NONE', #32, #19, #80, .T. ) ;
#259 = DIRECTION ( 'NONE',  ( -0.0000000000000000000, -0.0000000000000000000, 1.000000000000000000 ) ) ;
#260 = PERSON ( 'UNSPECIFIED', 'UNSPECIFIED', 'UNSPECIFIED', ('UNSPECIFIED'), ('UNSPECIFIED'), ('UNSPECIFIED') ) ;
#261 = CIRCLE ( 'NONE', #72, 12.55857864376269000 ) ;
#262 = CC_DESIGN_DATE_AND_TIME_ASSIGNMENT ( #289, #281, ( #51 ) ) ;
#263 = PERSON_AND_ORGANIZATION ( #260, #198 ) ;
#264 = CC_DESIGN_PERSON_AND_ORGANIZATION_ASSIGNMENT ( #210, #190, ( #165 ) ) ;
#265 = CARTESIAN_POINT ( 'NONE',  ( 0.0000000000000000000, 0.0000000000000000000, -14.85999902161147900 ) ) ;
#266 = APPROVAL_PERSON_ORGANIZATION ( #142, #7, #174 ) ;
#267 = DIRECTION ( 'NONE',  ( 1.000000000000000000, 0.0000000000000000000, 0.0000000000000000000 ) ) ;
#268 = AXIS2_PLACEMENT_3D ( 'NONE', #139, #195, #298 ) ;
#269 = DIRECTION ( 'NONE',  ( 0.0000000000000000000, 0.0000000000000000000, -1.000000000000000000 ) ) ;
#270 = CARTESIAN_POINT ( 'NONE',  ( -0.006000391355407211400, 7.348360067030889900E-019, -14.85999902161147900 ) ) ;
#271 = DIRECTION ( 'NONE',  ( 1.000000000000000000, 0.0000000000000000000, 0.0000000000000000000 ) ) ;
#272 = MECHANICAL_CONTEXT ( 'NONE', #233, 'mechanical' ) ;
#273 = CALENDAR_DATE ( 2015, 28, 4 ) ;
#274 = CC_DESIGN_APPROVAL ( #7, ( #165 ) ) ;
#275 = ADVANCED_FACE ( 'NONE', ( #172 ), #125, .T. ) ;
#276 = DIRECTION ( 'NONE',  ( 0.0000000000000000000, -0.0000000000000000000, 1.000000000000000000 ) ) ;
#277 = EDGE_CURVE ( 'NONE', #169, #103, #175, .T. ) ;
#278 = DIRECTION ( 'NONE',  ( -0.0000000000000000000, -0.0000000000000000000, 1.000000000000000000 ) ) ;
#279 = DATE_TIME_ROLE ( 'classification_date' ) ;
#280 = PERSON_AND_ORGANIZATION_ROLE ( 'design_supplier' ) ;
#281 = DATE_TIME_ROLE ( 'creation_date' ) ;
#282 = CYLINDRICAL_SURFACE ( 'NONE', #268, 12.69999999999999900 ) ;
#283 = CONICAL_SURFACE ( 'NONE', #8, 12.69999999999999800, 0.7853981633974300700 ) ;
#284 = CC_DESIGN_PERSON_AND_ORGANIZATION_ASSIGNMENT ( #67, #234, ( #167 ) ) ;
#285 = DIRECTION ( 'NONE',  ( 0.0000000000000000000, 0.0000000000000000000, -1.000000000000000000 ) ) ;
#286 = CARTESIAN_POINT ( 'NONE',  ( 0.0000000000000000000, 0.0000000000000000000, -3.540000000000001400 ) ) ;
#287 = PERSON_AND_ORGANIZATION ( #260, #198 ) ;
#288 = APPLICATION_CONTEXT ( 'configuration controlled 3d designs of mechanical parts and assemblies' ) ;
#289 = DATE_AND_TIME ( #111, #229 ) ;
#290 = PRODUCT_RELATED_PRODUCT_CATEGORY ( 'detail', '', ( #167 ) ) ;
#291 = CC_DESIGN_APPROVAL ( #215, ( #292 ) ) ;
#292 = SECURITY_CLASSIFICATION ( '', '', #204 ) ;
#293 = FACE_OUTER_BOUND ( 'NONE', #53, .T. ) ;
#294 =( GEOMETRIC_REPRESENTATION_CONTEXT ( 3 ) GLOBAL_UNCERTAINTY_ASSIGNED_CONTEXT ( ( #76 ) ) GLOBAL_UNIT_ASSIGNED_CONTEXT ( ( #119, #212, #220 ) ) REPRESENTATION_CONTEXT ( 'NONE', 'WORKASPACE' ) );
#295 = VECTOR ( 'NONE', #178, 1000.000000000000000 ) ;
#296 = DATE_AND_TIME ( #137, #152 ) ;
#297 = EDGE_LOOP ( 'NONE', ( #222, #20, #86, #34 ) ) ;
#298 = DIRECTION ( 'NONE',  ( 1.000000000000000000, 0.0000000000000000000, 0.0000000000000000000 ) ) ;
#299 = ADVANCED_FACE ( 'NONE', ( #129 ), #282, .T. ) ;
#300 = ADVANCED_FACE ( 'NONE', ( #236 ), #243, .T. ) ;
#301 = DIRECTION ( 'NONE',  ( -0.0000000000000000000, -0.0000000000000000000, 1.000000000000000000 ) ) ;
ENDSEC;
END-ISO-10303-21;
