ISO-10303-21;
HEADER;
FILE_DESCRIPTION (( 'STEP AP203' ),
    '1' );
FILE_NAME ('Web Model 39273_39273.step',
    '2018-09-10T19:23:23',
    ( '' ),
    ( '' ),
    'SwSTEP 2.0',
    'SolidWorks 2016',
    '' );
FILE_SCHEMA (( 'CONFIG_CONTROL_DESIGN' ));
ENDSEC;

DATA;
#1 = FACE_OUTER_BOUND ( 'NONE', #24, .T. ) ;
#2 = VECTOR ( 'NONE', #3, 1000.000000000000000 ) ;
#3 = DIRECTION ( 'NONE',  ( -0.0000000000000000000, -0.0000000000000000000, -1.000000000000000000 ) ) ;
#4 = EDGE_CURVE ( 'NONE', #88, #61, #119, .T. ) ;
#5 = EDGE_CURVE ( 'NONE', #171, #61, #87, .T. ) ;
#6 = APPROVAL ( #152, 'UNSPECIFIED' ) ;
#7 = COORDINATED_UNIVERSAL_TIME_OFFSET ( 5, 0, .BEHIND. ) ;
#8 = EDGE_CURVE ( 'NONE', #79, #88, #9, .T. ) ;
#9 = LINE ( 'NONE', #37, #51 ) ;
#10 = ORIENTED_EDGE ( 'NONE', *, *, #21, .T. ) ;
#11 = ORIENTED_EDGE ( 'NONE', *, *, #21, .F. ) ;
#12 = DIRECTION ( 'NONE',  ( -1.000000000000000000, 0.0000000000000000000, 0.0000000000000000000 ) ) ;
#13 = CARTESIAN_POINT ( 'NONE',  ( 0.0000000000000000000, 0.0000000000000000000, 0.0000000000000000000 ) ) ;
#14 = ADVANCED_FACE ( 'NONE', ( #35 ), #72, .F. ) ;
#15 = DIRECTION ( 'NONE',  ( 0.0000000000000000000, 0.0000000000000000000, 1.000000000000000000 ) ) ;
#16 = AXIS2_PLACEMENT_3D ( 'NONE', #131, #62, #105 ) ;
#17 = DATE_TIME_ROLE ( 'creation_date' ) ;
#18 = CALENDAR_DATE ( 2018, 10, 9 ) ;
#19 = APPROVAL_ROLE ( '' ) ;
#20 = CLOSED_SHELL ( 'NONE', ( #66, #100, #32, #14 ) ) ;
#21 = EDGE_CURVE ( 'NONE', #61, #88, #95, .T. ) ;
#22 = CYLINDRICAL_SURFACE ( 'NONE', #54, 12.50000000000000000 ) ;
#23 = DIRECTION ( 'NONE',  ( 0.0000000000000000000, 0.0000000000000000000, 1.000000000000000000 ) ) ;
#24 = EDGE_LOOP ( 'NONE', ( #149, #47, #10, #153 ) ) ;
#25 = DIRECTION ( 'NONE',  ( 1.000000000000000000, 0.0000000000000000000, 0.0000000000000000000 ) ) ;
#26 = FACE_OUTER_BOUND ( 'NONE', #56, .T. ) ;
#27 = DIRECTION ( 'NONE',  ( -0.0000000000000000000, -0.0000000000000000000, -1.000000000000000000 ) ) ;
#28 = ADVANCED_BREP_SHAPE_REPRESENTATION ( 'Web Model 39273_39273', ( #139, #89 ), #118 ) ;
#29 = ORIENTED_EDGE ( 'NONE', *, *, #8, .T. ) ;
#30 = DATE_AND_TIME ( #74, #60 ) ;
#31 = CARTESIAN_POINT ( 'NONE',  ( 0.0000000000000000000, 0.0000000000000000000, 0.5500000000000000400 ) ) ;
#32 = ADVANCED_FACE ( 'NONE', ( #26 ), #130, .T. ) ;
#33 = PERSON_AND_ORGANIZATION_ROLE ( 'classification_officer' ) ;
#34 =( LENGTH_UNIT ( ) NAMED_UNIT ( * ) SI_UNIT ( .MILLI., .METRE. ) );
#35 = FACE_OUTER_BOUND ( 'NONE', #123, .T. ) ;
#36 = PERSON_AND_ORGANIZATION ( #59, #108 ) ;
#37 = CARTESIAN_POINT ( 'NONE',  ( -12.50000000000000000, 0.0000000000000000000, 0.5500000000000000400 ) ) ;
#38 = DIRECTION ( 'NONE',  ( 1.000000000000000000, 0.0000000000000000000, -0.0000000000000000000 ) ) ;
#39 = AXIS2_PLACEMENT_3D ( 'NONE', #91, #23, #38 ) ;
#40 = DATE_AND_TIME ( #43, #68 ) ;
#41 = CARTESIAN_POINT ( 'NONE',  ( 0.0000000000000000000, 0.0000000000000000000, 0.5500000000000000400 ) ) ;
#42 = CC_DESIGN_PERSON_AND_ORGANIZATION_ASSIGNMENT ( #55, #137, ( #142 ) ) ;
#43 = CALENDAR_DATE ( 2018, 10, 9 ) ;
#44 = APPROVAL_ROLE ( '' ) ;
#45 = ORIENTED_EDGE ( 'NONE', *, *, #172, .T. ) ;
#46 = APPLICATION_CONTEXT ( 'configuration controlled 3d designs of mechanical parts and assemblies' ) ;
#47 = ORIENTED_EDGE ( 'NONE', *, *, #5, .T. ) ;
#48 = PRODUCT_DEFINITION_FORMATION_WITH_SPECIFIED_SOURCE ( 'ANY', '', #142, .NOT_KNOWN. ) ;
#49 = DIRECTION ( 'NONE',  ( 0.0000000000000000000, 0.0000000000000000000, 1.000000000000000000 ) ) ;
#50 = CARTESIAN_POINT ( 'NONE',  ( 0.0000000000000000000, 0.0000000000000000000, 0.5500000000000000400 ) ) ;
#51 = VECTOR ( 'NONE', #165, 1000.000000000000000 ) ;
#52 = DIRECTION ( 'NONE',  ( 1.000000000000000000, 0.0000000000000000000, 0.0000000000000000000 ) ) ;
#53 = CIRCLE ( 'NONE', #93, 12.50000000000000000 ) ;
#54 = AXIS2_PLACEMENT_3D ( 'NONE', #134, #122, #12 ) ;
#55 = PERSON_AND_ORGANIZATION ( #59, #108 ) ;
#56 = EDGE_LOOP ( 'NONE', ( #116, #45 ) ) ;
#57 = APPROVAL_ROLE ( '' ) ;
#58 = CC_DESIGN_DATE_AND_TIME_ASSIGNMENT ( #71, #112, ( #129 ) ) ;
#59 = PERSON ( 'UNSPECIFIED', 'UNSPECIFIED', 'UNSPECIFIED', ('UNSPECIFIED'), ('UNSPECIFIED'), ('UNSPECIFIED') ) ;
#60 = LOCAL_TIME ( 15, 23, 23.00000000000000000, #133 ) ;
#61 = VERTEX_POINT ( 'NONE', #77 ) ;
#62 = DIRECTION ( 'NONE',  ( 0.0000000000000000000, 0.0000000000000000000, 1.000000000000000000 ) ) ;
#63 = EDGE_CURVE ( 'NONE', #79, #171, #128, .T. ) ;
#64 = PERSON_AND_ORGANIZATION ( #59, #108 ) ;
#65 = PERSON_AND_ORGANIZATION ( #59, #108 ) ;
#66 = ADVANCED_FACE ( 'NONE', ( #1 ), #159, .T. ) ;
#67 =( NAMED_UNIT ( * ) SI_UNIT ( $, .STERADIAN. ) SOLID_ANGLE_UNIT ( ) );
#68 = LOCAL_TIME ( 15, 23, 23.00000000000000000, #113 ) ;
#69 = AXIS2_PLACEMENT_3D ( 'NONE', #167, #94, #25 ) ;
#70 = PRODUCT_DEFINITION ( 'UNKNOWN', '', #48, #76 ) ;
#71 = DATE_AND_TIME ( #78, #166 ) ;
#72 = PLANE ( 'NONE',  #39 ) ;
#73 = UNCERTAINTY_MEASURE_WITH_UNIT (LENGTH_MEASURE( 1.000000000000000100E-005 ), #34, 'distance_accuracy_value', 'NONE');
#74 = CALENDAR_DATE ( 2018, 10, 9 ) ;
#75 = ORIENTED_EDGE ( 'NONE', *, *, #5, .F. ) ;
#76 = DESIGN_CONTEXT ( 'detailed design', #46, 'design' ) ;
#77 = CARTESIAN_POINT ( 'NONE',  ( 12.50000000000000000, 1.530808498934191500E-015, -0.5500000000000000400 ) ) ;
#78 = CALENDAR_DATE ( 2018, 10, 9 ) ;
#79 = VERTEX_POINT ( 'NONE', #151 ) ;
#80 = APPROVAL ( #126, 'UNSPECIFIED' ) ;
#81 = CALENDAR_DATE ( 2018, 10, 9 ) ;
#82 = CC_DESIGN_DATE_AND_TIME_ASSIGNMENT ( #30, #17, ( #70 ) ) ;
#83 = DIRECTION ( 'NONE',  ( 0.0000000000000000000, 0.0000000000000000000, 1.000000000000000000 ) ) ;
#84 = SECURITY_CLASSIFICATION_LEVEL ( 'unclassified' ) ;
#85 = APPLICATION_CONTEXT ( 'configuration controlled 3d designs of mechanical parts and assemblies' ) ;
#86 = DATE_AND_TIME ( #81, #120 ) ;
#87 = LINE ( 'NONE', #90, #2 ) ;
#88 = VERTEX_POINT ( 'NONE', #150 ) ;
#89 = AXIS2_PLACEMENT_3D ( 'NONE', #13, #15, #115 ) ;
#90 = CARTESIAN_POINT ( 'NONE',  ( 12.50000000000000000, 1.530808498934191500E-015, 0.5500000000000000400 ) ) ;
#91 = CARTESIAN_POINT ( 'NONE',  ( 0.0000000000000000000, 0.0000000000000000000, -0.5500000000000000400 ) ) ;
#92 = FACE_OUTER_BOUND ( 'NONE', #117, .T. ) ;
#93 = AXIS2_PLACEMENT_3D ( 'NONE', #31, #83, #124 ) ;
#94 = DIRECTION ( 'NONE',  ( 0.0000000000000000000, 0.0000000000000000000, 1.000000000000000000 ) ) ;
#95 = CIRCLE ( 'NONE', #69, 12.50000000000000000 ) ;
#96 =( NAMED_UNIT ( * ) PLANE_ANGLE_UNIT ( ) SI_UNIT ( $, .RADIAN. ) );
#97 = APPROVAL ( #160, 'UNSPECIFIED' ) ;
#98 = APPROVAL_PERSON_ORGANIZATION ( #143, #97, #44 ) ;
#99 = MECHANICAL_CONTEXT ( 'NONE', #85, 'mechanical' ) ;
#100 = ADVANCED_FACE ( 'NONE', ( #92 ), #22, .T. ) ;
#101 = CC_DESIGN_SECURITY_CLASSIFICATION ( #129, ( #48 ) ) ;
#102 = AXIS2_PLACEMENT_3D ( 'NONE', #50, #135, #52 ) ;
#103 = COORDINATED_UNIVERSAL_TIME_OFFSET ( 5, 0, .BEHIND. ) ;
#104 = CC_DESIGN_PERSON_AND_ORGANIZATION_ASSIGNMENT ( #65, #140, ( #48 ) ) ;
#105 = DIRECTION ( 'NONE',  ( 1.000000000000000000, 0.0000000000000000000, 0.0000000000000000000 ) ) ;
#106 = APPROVAL_PERSON_ORGANIZATION ( #121, #80, #19 ) ;
#107 = CC_DESIGN_PERSON_AND_ORGANIZATION_ASSIGNMENT ( #64, #175, ( #70 ) ) ;
#108 = ORGANIZATION ( 'UNSPECIFIED', 'UNSPECIFIED', '' ) ;
#109 = DIRECTION ( 'NONE',  ( -1.000000000000000000, 0.0000000000000000000, 0.0000000000000000000 ) ) ;
#110 = APPROVAL_DATE_TIME ( #169, #6 ) ;
#111 = CC_DESIGN_PERSON_AND_ORGANIZATION_ASSIGNMENT ( #36, #156, ( #48 ) ) ;
#112 = DATE_TIME_ROLE ( 'classification_date' ) ;
#113 = COORDINATED_UNIVERSAL_TIME_OFFSET ( 5, 0, .BEHIND. ) ;
#114 = ORIENTED_EDGE ( 'NONE', *, *, #63, .F. ) ;
#115 = DIRECTION ( 'NONE',  ( 1.000000000000000000, 0.0000000000000000000, 0.0000000000000000000 ) ) ;
#116 = ORIENTED_EDGE ( 'NONE', *, *, #63, .T. ) ;
#117 = EDGE_LOOP ( 'NONE', ( #75, #114, #29, #144 ) ) ;
#118 =( GEOMETRIC_REPRESENTATION_CONTEXT ( 3 ) GLOBAL_UNCERTAINTY_ASSIGNED_CONTEXT ( ( #73 ) ) GLOBAL_UNIT_ASSIGNED_CONTEXT ( ( #34, #96, #67 ) ) REPRESENTATION_CONTEXT ( 'NONE', 'WORKASPACE' ) );
#119 = CIRCLE ( 'NONE', #16, 12.50000000000000000 ) ;
#120 = LOCAL_TIME ( 15, 23, 23.00000000000000000, #154 ) ;
#121 = PERSON_AND_ORGANIZATION ( #59, #108 ) ;
#122 = DIRECTION ( 'NONE',  ( -0.0000000000000000000, -0.0000000000000000000, -1.000000000000000000 ) ) ;
#123 = EDGE_LOOP ( 'NONE', ( #173, #11 ) ) ;
#124 = DIRECTION ( 'NONE',  ( 1.000000000000000000, 0.0000000000000000000, 0.0000000000000000000 ) ) ;
#125 = PERSON_AND_ORGANIZATION ( #59, #108 ) ;
#126 = APPROVAL_STATUS ( 'not_yet_approved' ) ;
#127 = PRODUCT_DEFINITION_SHAPE ( 'NONE', 'NONE',  #70 ) ;
#128 = CIRCLE ( 'NONE', #102, 12.50000000000000000 ) ;
#129 = SECURITY_CLASSIFICATION ( '', '', #84 ) ;
#130 = PLANE ( 'NONE',  #163 ) ;
#131 = CARTESIAN_POINT ( 'NONE',  ( 0.0000000000000000000, 0.0000000000000000000, -0.5500000000000000400 ) ) ;
#132 = AXIS2_PLACEMENT_3D ( 'NONE', #146, #27, #109 ) ;
#133 = COORDINATED_UNIVERSAL_TIME_OFFSET ( 5, 0, .BEHIND. ) ;
#134 = CARTESIAN_POINT ( 'NONE',  ( 0.0000000000000000000, 0.0000000000000000000, 0.5500000000000000400 ) ) ;
#135 = DIRECTION ( 'NONE',  ( 0.0000000000000000000, 0.0000000000000000000, 1.000000000000000000 ) ) ;
#136 = PERSON_AND_ORGANIZATION ( #59, #108 ) ;
#137 = PERSON_AND_ORGANIZATION_ROLE ( 'design_owner' ) ;
#138 = APPROVAL_DATE_TIME ( #40, #80 ) ;
#139 = MANIFOLD_SOLID_BREP ( 'Boss-Extrude1', #20 ) ;
#140 = PERSON_AND_ORGANIZATION_ROLE ( 'creator' ) ;
#141 = CC_DESIGN_APPROVAL ( #80, ( #48 ) ) ;
#142 = PRODUCT ( 'Web Model 39273_39273', 'Web Model 39273_39273', '', ( #99 ) ) ;
#143 = PERSON_AND_ORGANIZATION ( #59, #108 ) ;
#144 = ORIENTED_EDGE ( 'NONE', *, *, #4, .T. ) ;
#145 = CC_DESIGN_APPROVAL ( #6, ( #70 ) ) ;
#146 = CARTESIAN_POINT ( 'NONE',  ( 0.0000000000000000000, 0.0000000000000000000, 0.5500000000000000400 ) ) ;
#147 = CC_DESIGN_APPROVAL ( #97, ( #129 ) ) ;
#148 = DIRECTION ( 'NONE',  ( 1.000000000000000000, 0.0000000000000000000, -0.0000000000000000000 ) ) ;
#149 = ORIENTED_EDGE ( 'NONE', *, *, #172, .F. ) ;
#150 = CARTESIAN_POINT ( 'NONE',  ( -12.50000000000000000, 0.0000000000000000000, -0.5500000000000000400 ) ) ;
#151 = CARTESIAN_POINT ( 'NONE',  ( -12.50000000000000000, 0.0000000000000000000, 0.5500000000000000400 ) ) ;
#152 = APPROVAL_STATUS ( 'not_yet_approved' ) ;
#153 = ORIENTED_EDGE ( 'NONE', *, *, #8, .F. ) ;
#154 = COORDINATED_UNIVERSAL_TIME_OFFSET ( 5, 0, .BEHIND. ) ;
#155 = CC_DESIGN_PERSON_AND_ORGANIZATION_ASSIGNMENT ( #136, #33, ( #129 ) ) ;
#156 = PERSON_AND_ORGANIZATION_ROLE ( 'design_supplier' ) ;
#157 = APPROVAL_DATE_TIME ( #86, #97 ) ;
#158 = PRODUCT_RELATED_PRODUCT_CATEGORY ( 'detail', '', ( #142 ) ) ;
#159 = CYLINDRICAL_SURFACE ( 'NONE', #132, 12.50000000000000000 ) ;
#160 = APPROVAL_STATUS ( 'not_yet_approved' ) ;
#161 = APPLICATION_PROTOCOL_DEFINITION ( 'international standard', 'config_control_design', 1994, #46 ) ;
#162 = SHAPE_DEFINITION_REPRESENTATION ( #127, #28 ) ;
#163 = AXIS2_PLACEMENT_3D ( 'NONE', #41, #49, #148 ) ;
#164 = APPROVAL_PERSON_ORGANIZATION ( #125, #6, #57 ) ;
#165 = DIRECTION ( 'NONE',  ( -0.0000000000000000000, -0.0000000000000000000, -1.000000000000000000 ) ) ;
#166 = LOCAL_TIME ( 15, 23, 23.00000000000000000, #103 ) ;
#167 = CARTESIAN_POINT ( 'NONE',  ( 0.0000000000000000000, 0.0000000000000000000, -0.5500000000000000400 ) ) ;
#168 = LOCAL_TIME ( 15, 23, 23.00000000000000000, #7 ) ;
#169 = DATE_AND_TIME ( #18, #168 ) ;
#170 = CARTESIAN_POINT ( 'NONE',  ( 12.50000000000000000, 1.530808498934191500E-015, 0.5500000000000000400 ) ) ;
#171 = VERTEX_POINT ( 'NONE', #170 ) ;
#172 = EDGE_CURVE ( 'NONE', #171, #79, #53, .T. ) ;
#173 = ORIENTED_EDGE ( 'NONE', *, *, #4, .F. ) ;
#174 = APPLICATION_PROTOCOL_DEFINITION ( 'international standard', 'config_control_design', 1994, #85 ) ;
#175 = PERSON_AND_ORGANIZATION_ROLE ( 'creator' ) ;
ENDSEC;
END-ISO-10303-21;
