ISO-10303-21;
HEADER;
FILE_DESCRIPTION (( 'STEP AP203' ),
    '1' );
FILE_NAME ('TTN051875-E0W.STEP',
    '2017-04-18T15:08:16',
    ( 'admin' ),
    ( '' ),
    'SwSTEP 2.0',
    'SolidWorks 2016',
    '' );
FILE_SCHEMA (( 'CONFIG_CONTROL_DESIGN' ));
ENDSEC;

DATA;
#1 = COORDINATED_UNIVERSAL_TIME_OFFSET ( 5, 0, .BEHIND. ) ;
#2 = CARTESIAN_POINT ( 'NONE',  ( 2.966573681852681000E-017, 0.2422391242861312000, -0.04046676690496563800 ) ) ;
#3 = APPROVAL_STATUS ( 'not_yet_approved' ) ;
#4 = DIRECTION ( 'NONE',  ( 0.0000000000000000000, 1.836909530733534300E-016, -1.000000000000000000 ) ) ;
#5 = DATE_AND_TIME ( #230, #251 ) ;
#6 = DIRECTION ( 'NONE',  ( -1.224646799147353200E-016, -1.000000000000000000, 0.0000000000000000000 ) ) ;
#7 = ORIENTED_EDGE ( 'NONE', *, *, #307, .T. ) ;
#8 = PRODUCT ( 'TTN051875-E0W', 'TTN051875-E0W', '', ( #103 ) ) ;
#9 = DIRECTION ( 'NONE',  ( 0.0000000000000000000, 1.000000000000000000, 1.762106968756433200E-016 ) ) ;
#10 = CARTESIAN_POINT ( 'NONE',  ( 0.0000000000000000000, 0.0000000000000000000, 0.05866141732283464800 ) ) ;
#11 = FACE_OUTER_BOUND ( 'NONE', #58, .T. ) ;
#12 = APPLICATION_CONTEXT ( 'configuration controlled 3d designs of mechanical parts and assemblies' ) ;
#13 = DIRECTION ( 'NONE',  ( 0.0000000000000000000, 1.000000000000000000, 1.762106968756431500E-016 ) ) ;
#14 = VECTOR ( 'NONE', #141, 39.37007874015748900 ) ;
#15 =( NAMED_UNIT ( * ) SI_UNIT ( $, .STERADIAN. ) SOLID_ANGLE_UNIT ( ) );
#16 = CALENDAR_DATE ( 2017, 18, 4 ) ;
#17 = DIRECTION ( 'NONE',  ( -0.0000000000000000000, -1.836909530733534300E-016, 1.000000000000000000 ) ) ;
#18 = ADVANCED_FACE ( 'NONE', ( #183 ), #227, .T. ) ;
#19 = EDGE_LOOP ( 'NONE', ( #55, #189, #86, #220 ) ) ;
#20 = SHAPE_DEFINITION_REPRESENTATION ( #283, #194 ) ;
#21 = EDGE_CURVE ( 'NONE', #232, #262, #172, .T. ) ;
#22 = DIRECTION ( 'NONE',  ( -0.0000000000000000000, -1.836909530733534300E-016, 1.000000000000000000 ) ) ;
#23 = DIRECTION ( 'NONE',  ( -1.000000000000000000, 0.0000000000000000000, 0.0000000000000000000 ) ) ;
#24 = VECTOR ( 'NONE', #259, 39.37007874015748900 ) ;
#25 = FACE_OUTER_BOUND ( 'NONE', #80, .T. ) ;
#26 = EDGE_CURVE ( 'NONE', #232, #33, #221, .T. ) ;
#27 = LOCAL_TIME ( 11, 8, 16.00000000000000000, #1 ) ;
#28 = FACE_OUTER_BOUND ( 'NONE', #326, .T. ) ;
#29 = LINE ( 'NONE', #287, #186 ) ;
#30 = ORGANIZATION ( 'UNSPECIFIED', 'UNSPECIFIED', '' ) ;
#31 = PERSON_AND_ORGANIZATION ( #268, #30 ) ;
#32 = CARTESIAN_POINT ( 'NONE',  ( 0.0000000000000000000, -0.2500000000000000600, -0.03140106897897237300 ) ) ;
#33 = VERTEX_POINT ( 'NONE', #87 ) ;
#34 = FACE_OUTER_BOUND ( 'NONE', #19, .T. ) ;
#35 = APPLICATION_PROTOCOL_DEFINITION ( 'international standard', 'config_control_design', 1994, #121 ) ;
#36 = EDGE_CURVE ( 'NONE', #147, #244, #314, .T. ) ;
#37 = DIRECTION ( 'NONE',  ( 0.0000000000000000000, -0.6503216004603046300, 0.7596590129622288200 ) ) ;
#38 = DATE_AND_TIME ( #16, #315 ) ;
#39 = CC_DESIGN_PERSON_AND_ORGANIZATION_ASSIGNMENT ( #119, #66, ( #125 ) ) ;
#40 = VECTOR ( 'NONE', #37, 39.37007874015748900 ) ;
#41 = MANIFOLD_SOLID_BREP ( 'TTN051876-1-solid1', #321 ) ;
#42 = DIRECTION ( 'NONE',  ( 0.0000000000000000000, 1.000000000000000000, 1.762106968756433200E-016 ) ) ;
#43 = APPROVAL_DATE_TIME ( #293, #120 ) ;
#44 = CARTESIAN_POINT ( 'NONE',  ( 0.0000000000000000000, 5.007479368395969600E-018, 0.03140106897897122800 ) ) ;
#45 = DIRECTION ( 'NONE',  ( -0.0000000000000000000, -1.836909530733565900E-016, 1.000000000000000000 ) ) ;
#46 = ADVANCED_FACE ( 'NONE', ( #25 ), #128, .T. ) ;
#47 = DIRECTION ( 'NONE',  ( 0.0000000000000000000, 1.000000000000000000, 1.762106968756431500E-016 ) ) ;
#48 = DIRECTION ( 'NONE',  ( 1.000000000000000000, 0.0000000000000000000, 0.0000000000000000000 ) ) ;
#49 = PRODUCT_DEFINITION_FORMATION_WITH_SPECIFIED_SOURCE ( 'ANY', '', #8, .NOT_KNOWN. ) ;
#50 = CARTESIAN_POINT ( 'NONE',  ( 0.0000000000000000000, 1.654366394493504500E-017, -0.03140106897897232400 ) ) ;
#51 = EDGE_CURVE ( 'NONE', #242, #147, #291, .T. ) ;
#52 = DIRECTION ( 'NONE',  ( 0.0000000000000000000, 0.6503216004602959700, -0.7596590129622363700 ) ) ;
#53 = AXIS2_PLACEMENT_3D ( 'NONE', #296, #222, #42 ) ;
#54 = DIRECTION ( 'NONE',  ( 0.0000000000000000000, -1.000000000000000000, -1.762106968756424600E-016 ) ) ;
#55 = ORIENTED_EDGE ( 'NONE', *, *, #139, .F. ) ;
#56 = AXIS2_PLACEMENT_3D ( 'NONE', #166, #23, #212 ) ;
#57 = EDGE_CURVE ( 'NONE', #147, #167, #191, .T. ) ;
#58 = EDGE_LOOP ( 'NONE', ( #153, #135, #276 ) ) ;
#59 = EDGE_CURVE ( 'NONE', #295, #262, #269, .T. ) ;
#60 = EDGE_CURVE ( 'NONE', #232, #295, #180, .T. ) ;
#61 = APPROVAL_PERSON_ORGANIZATION ( #173, #120, #114 ) ;
#62 = ORIENTED_EDGE ( 'NONE', *, *, #145, .F. ) ;
#63 = ORIENTED_EDGE ( 'NONE', *, *, #60, .F. ) ;
#64 = CC_DESIGN_APPROVAL ( #236, ( #49 ) ) ;
#65 = EDGE_CURVE ( 'NONE', #167, #100, #82, .T. ) ;
#66 = PERSON_AND_ORGANIZATION_ROLE ( 'classification_officer' ) ;
#67 = ORIENTED_EDGE ( 'NONE', *, *, #255, .T. ) ;
#68 = DIRECTION ( 'NONE',  ( 0.0000000000000000000, -1.000000000000000000, -1.762106968756424600E-016 ) ) ;
#69 = CARTESIAN_POINT ( 'NONE',  ( 3.061616997868383600E-017, 0.2500000000000000600, -0.03140106897897227600 ) ) ;
#70 = VECTOR ( 'NONE', #310, 39.37007874015748100 ) ;
#71 = PERSON_AND_ORGANIZATION ( #268, #30 ) ;
#72 = DIRECTION ( 'NONE',  ( -1.000000000000000000, 0.0000000000000000000, -0.0000000000000000000 ) ) ;
#73 = ORIENTED_EDGE ( 'NONE', *, *, #284, .T. ) ;
#74 = ORIENTED_EDGE ( 'NONE', *, *, #255, .F. ) ;
#75 = DIRECTION ( 'NONE',  ( 1.000000000000000000, -0.0000000000000000000, 0.0000000000000000000 ) ) ;
#76 = CARTESIAN_POINT ( 'NONE',  ( 0.0000000000000000000, -0.2500000000000000600, -0.03140106897897237300 ) ) ;
#77 = ORIENTED_EDGE ( 'NONE', *, *, #26, .F. ) ;
#78 = DIRECTION ( 'NONE',  ( 0.0000000000000000000, 1.836909530733591800E-016, -1.000000000000000000 ) ) ;
#79 = CONICAL_SURFACE ( 'NONE', #231, 0.2422391242861277900, 0.7080077084945712900 ) ;
#80 = EDGE_LOOP ( 'NONE', ( #63, #216, #74, #156 ) ) ;
#81 = CARTESIAN_POINT ( 'NONE',  ( 0.0000000000000000000, 5.007479368395969600E-018, 0.03140106897897122800 ) ) ;
#82 = LINE ( 'NONE', #199, #24 ) ;
#83 = CC_DESIGN_PERSON_AND_ORGANIZATION_ASSIGNMENT ( #168, #140, ( #8 ) ) ;
#84 = AXIS2_PLACEMENT_3D ( 'NONE', #318, #45, #282 ) ;
#85 = CARTESIAN_POINT ( 'NONE',  ( 0.0000000000000000000, -0.2422391242861306200, -0.04046676690496567300 ) ) ;
#86 = ORIENTED_EDGE ( 'NONE', *, *, #284, .F. ) ;
#87 = CARTESIAN_POINT ( 'NONE',  ( 0.0000000000000000000, -0.2500000000000000600, 0.03140106897897118600 ) ) ;
#88 = ORIENTED_EDGE ( 'NONE', *, *, #36, .T. ) ;
#89 = ORIENTED_EDGE ( 'NONE', *, *, #57, .F. ) ;
#90 = APPROVAL_DATE_TIME ( #38, #223 ) ;
#91 = DESIGN_CONTEXT ( 'detailed design', #12, 'design' ) ;
#92 = DATE_TIME_ROLE ( 'classification_date' ) ;
#93 = CARTESIAN_POINT ( 'NONE',  ( 0.0000000000000000000, 0.2422391242861277900, 0.04046676690496651300 ) ) ;
#94 = COORDINATED_UNIVERSAL_TIME_OFFSET ( 5, 0, .BEHIND. ) ;
#95 = DIMENSIONAL_EXPONENTS ( 1.000000000000000000, 0.0000000000000000000, 0.0000000000000000000, 0.0000000000000000000, 0.0000000000000000000, 0.0000000000000000000, 0.0000000000000000000 ) ;
#96 =( CONVERSION_BASED_UNIT ( 'INCH', #108 ) LENGTH_UNIT ( ) NAMED_UNIT ( #95 ) );
#97 = AXIS2_PLACEMENT_3D ( 'NONE', #323, #257, #126 ) ;
#98 = CARTESIAN_POINT ( 'NONE',  ( 0.0000000000000000000, 2.945408922487641600E-016, -0.04046676690496565200 ) ) ;
#99 = EDGE_CURVE ( 'NONE', #295, #232, #112, .T. ) ;
#100 = VERTEX_POINT ( 'NONE', #69 ) ;
#101 = CARTESIAN_POINT ( 'NONE',  ( 0.0000000000000000000, 0.0000000000000000000, 1.562992125984250300 ) ) ;
#102 = ADVANCED_FACE ( 'NONE', ( #279 ), #79, .T. ) ;
#103 = MECHANICAL_CONTEXT ( 'NONE', #121, 'mechanical' ) ;
#104 = FACE_OUTER_BOUND ( 'NONE', #111, .T. ) ;
#105 = CARTESIAN_POINT ( 'NONE',  ( 0.0000000000000000000, 0.0000000000000000000, 0.0000000000000000000 ) ) ;
#106 = CIRCLE ( 'NONE', #109, 0.2422391242861287600 ) ;
#107 = CIRCLE ( 'NONE', #297, 1.621653543307084700 ) ;
#108 = LENGTH_MEASURE_WITH_UNIT ( LENGTH_MEASURE( 0.02539999999999999900 ), #123 );
#109 = AXIS2_PLACEMENT_3D ( 'NONE', #184, #4, #54 ) ;
#110 = APPROVAL_DATE_TIME ( #5, #236 ) ;
#111 = EDGE_LOOP ( 'NONE', ( #73, #329, #67, #267 ) ) ;
#112 = CIRCLE ( 'NONE', #53, 0.2422391242861275700 ) ;
#113 = CIRCLE ( 'NONE', #320, 0.2500000000000000600 ) ;
#114 = APPROVAL_ROLE ( '' ) ;
#115 = SPHERICAL_SURFACE ( 'NONE', #290, 1.621653543307084700 ) ;
#116 = DIRECTION ( 'NONE',  ( 0.0000000000000000000, 1.000000000000000000, 1.878145495644180300E-016 ) ) ;
#117 = AXIS2_PLACEMENT_3D ( 'NONE', #50, #17, #308 ) ;
#118 = DIRECTION ( 'NONE',  ( 0.0000000000000000000, 0.0000000000000000000, -1.000000000000000000 ) ) ;
#119 = PERSON_AND_ORGANIZATION ( #268, #30 ) ;
#120 = APPROVAL ( #264, 'UNSPECIFIED' ) ;
#121 = APPLICATION_CONTEXT ( 'configuration controlled 3d designs of mechanical parts and assemblies' ) ;
#122 =( NAMED_UNIT ( * ) PLANE_ANGLE_UNIT ( ) SI_UNIT ( $, .RADIAN. ) );
#123 =( LENGTH_UNIT ( ) NAMED_UNIT ( * ) SI_UNIT ( $, .METRE. ) );
#124 = DATE_AND_TIME ( #261, #27 ) ;
#125 = SECURITY_CLASSIFICATION ( '', '', #202 ) ;
#126 = DIRECTION ( 'NONE',  ( 0.0000000000000000000, 1.000000000000000000, 1.684606434548977200E-016 ) ) ;
#127 = ORIENTED_EDGE ( 'NONE', *, *, #215, .F. ) ;
#128 = CONICAL_SURFACE ( 'NONE', #306, 0.2422391242861277900, 0.7080077084945712900 ) ;
#129 = DIRECTION ( 'NONE',  ( 0.0000000000000000000, 1.836909530733534300E-016, -1.000000000000000000 ) ) ;
#130 = CARTESIAN_POINT ( 'NONE',  ( 0.0000000000000000000, 0.0000000000000000000, -1.562992125984250300 ) ) ;
#131 = LOCAL_TIME ( 11, 8, 16.00000000000000000, #94 ) ;
#132 = CARTESIAN_POINT ( 'NONE',  ( 0.0000000000000000000, 3.342192676094750600E-018, 0.04046676690496647100 ) ) ;
#133 = EDGE_LOOP ( 'NONE', ( #77, #142, #137, #62 ) ) ;
#134 = DIRECTION ( 'NONE',  ( 0.0000000000000000000, 0.0000000000000000000, 1.000000000000000000 ) ) ;
#135 = ORIENTED_EDGE ( 'NONE', *, *, #60, .T. ) ;
#136 = ADVANCED_FACE ( 'NONE', ( #265 ), #285, .T. ) ;
#137 = ORIENTED_EDGE ( 'NONE', *, *, #198, .T. ) ;
#138 = CYLINDRICAL_SURFACE ( 'NONE', #209, 0.2500000000000000600 ) ;
#139 = EDGE_CURVE ( 'NONE', #167, #147, #106, .T. ) ;
#140 = PERSON_AND_ORGANIZATION_ROLE ( 'design_owner' ) ;
#141 = DIRECTION ( 'NONE',  ( 7.964142664200852700E-017, -0.6503216004602957500, -0.7596590129622364800 ) ) ;
#142 = ORIENTED_EDGE ( 'NONE', *, *, #99, .F. ) ;
#143 = DATE_AND_TIME ( #300, #213 ) ;
#144 = EDGE_CURVE ( 'NONE', #244, #33, #207, .T. ) ;
#145 = EDGE_CURVE ( 'NONE', #33, #253, #148, .T. ) ;
#146 = APPROVAL_STATUS ( 'not_yet_approved' ) ;
#147 = VERTEX_POINT ( 'NONE', #85 ) ;
#148 = CIRCLE ( 'NONE', #324, 0.2500000000000000600 ) ;
#149 = APPROVAL_PERSON_ORGANIZATION ( #312, #236, #263 ) ;
#150 = CARTESIAN_POINT ( 'NONE',  ( 3.061616997868383600E-017, 0.2500000000000000600, 0.03140106897897127600 ) ) ;
#151 = AXIS2_PLACEMENT_3D ( 'NONE', #309, #160, #302 ) ;
#152 = ORIENTED_EDGE ( 'NONE', *, *, #21, .T. ) ;
#153 = ORIENTED_EDGE ( 'NONE', *, *, #21, .F. ) ;
#154 = ADVANCED_FACE ( 'NONE', ( #11 ), #254, .T. ) ;
#155 = DIRECTION ( 'NONE',  ( 0.0000000000000000000, -1.000000000000000000, -1.878145495644180300E-016 ) ) ;
#156 = ORIENTED_EDGE ( 'NONE', *, *, #198, .F. ) ;
#157 = DIRECTION ( 'NONE',  ( 0.0000000000000000000, -1.000000000000000000, -1.707404996040164000E-016 ) ) ;
#158 = DIRECTION ( 'NONE',  ( -1.000000000000000000, 1.224646799147353200E-016, 2.249565377136128000E-032 ) ) ;
#159 = EDGE_LOOP ( 'NONE', ( #217, #245, #179 ) ) ;
#160 = DIRECTION ( 'NONE',  ( 1.000000000000000000, 0.0000000000000000000, 0.0000000000000000000 ) ) ;
#161 = AXIS2_PLACEMENT_3D ( 'NONE', #98, #129, #68 ) ;
#162 = CIRCLE ( 'NONE', #117, 0.2500000000000000600 ) ;
#163 = CARTESIAN_POINT ( 'NONE',  ( 0.0000000000000000000, 1.985854438680148400E-016, -0.05866141732283430800 ) ) ;
#164 = CC_DESIGN_SECURITY_CLASSIFICATION ( #125, ( #49 ) ) ;
#165 = CARTESIAN_POINT ( 'NONE',  ( 0.0000000000000000000, 1.654366394493504500E-017, -0.03140106897897232400 ) ) ;
#166 = CARTESIAN_POINT ( 'NONE',  ( 0.0000000000000000000, 0.0000000000000000000, -1.562992125984250300 ) ) ;
#167 = VERTEX_POINT ( 'NONE', #2 ) ;
#168 = PERSON_AND_ORGANIZATION ( #268, #30 ) ;
#169 = COORDINATED_UNIVERSAL_TIME_OFFSET ( 5, 0, .BEHIND. ) ;
#170 = ORIENTED_EDGE ( 'NONE', *, *, #307, .F. ) ;
#171 = CYLINDRICAL_SURFACE ( 'NONE', #84, 0.2500000000000000600 ) ;
#172 = CIRCLE ( 'NONE', #243, 1.621653543307084700 ) ;
#173 = PERSON_AND_ORGANIZATION ( #268, #30 ) ;
#174 = SPHERICAL_SURFACE ( 'NONE', #151, 1.621653543307084700 ) ;
#175 = AXIS2_PLACEMENT_3D ( 'NONE', #81, #188, #176 ) ;
#176 = DIRECTION ( 'NONE',  ( 0.0000000000000000000, 1.000000000000000000, 1.878145495644180300E-016 ) ) ;
#177 = PERSON_AND_ORGANIZATION ( #268, #30 ) ;
#178 = ORIENTED_EDGE ( 'NONE', *, *, #204, .T. ) ;
#179 = ORIENTED_EDGE ( 'NONE', *, *, #57, .T. ) ;
#180 = CIRCLE ( 'NONE', #305, 0.2422391242861275700 ) ;
#181 = CARTESIAN_POINT ( 'NONE',  ( 2.966573681852642800E-017, -0.2422391242861277900, 0.04046676690496642900 ) ) ;
#182 = DIRECTION ( 'NONE',  ( 0.0000000000000000000, -1.000000000000000000, -1.878145495644180300E-016 ) ) ;
#183 = FACE_OUTER_BOUND ( 'NONE', #248, .T. ) ;
#184 = CARTESIAN_POINT ( 'NONE',  ( 0.0000000000000000000, 2.945408922487641600E-016, -0.04046676690496565200 ) ) ;
#185 = DIRECTION ( 'NONE',  ( 0.0000000000000000000, 0.0000000000000000000, 1.000000000000000000 ) ) ;
#186 = VECTOR ( 'NONE', #292, 39.37007874015748100 ) ;
#187 = PERSON_AND_ORGANIZATION_ROLE ( 'creator' ) ;
#188 = DIRECTION ( 'NONE',  ( 0.0000000000000000000, 1.836909530733591800E-016, -1.000000000000000000 ) ) ;
#189 = ORIENTED_EDGE ( 'NONE', *, *, #65, .T. ) ;
#190 = ORIENTED_EDGE ( 'NONE', *, *, #51, .F. ) ;
#191 = CIRCLE ( 'NONE', #161, 0.2422391242861287600 ) ;
#192 =( GEOMETRIC_REPRESENTATION_CONTEXT ( 3 ) GLOBAL_UNCERTAINTY_ASSIGNED_CONTEXT ( ( #258 ) ) GLOBAL_UNIT_ASSIGNED_CONTEXT ( ( #96, #122, #15 ) ) REPRESENTATION_CONTEXT ( 'NONE', 'WORKASPACE' ) );
#193 = PRODUCT_RELATED_PRODUCT_CATEGORY ( 'detail', '', ( #8 ) ) ;
#194 = ADVANCED_BREP_SHAPE_REPRESENTATION ( 'TTN051875-E0W', ( #41, #237 ), #192 ) ;
#195 = AXIS2_PLACEMENT_3D ( 'NONE', #280, #22, #182 ) ;
#196 = APPROVAL_ROLE ( '' ) ;
#197 = CARTESIAN_POINT ( 'NONE',  ( 0.0000000000000000000, -2.945408922487735700E-016, 0.04046676690496647100 ) ) ;
#198 = EDGE_CURVE ( 'NONE', #295, #253, #288, .T. ) ;
#199 = CARTESIAN_POINT ( 'NONE',  ( 3.061616997868383600E-017, 0.2500000000000000600, -0.03140106897897227600 ) ) ;
#200 = CC_DESIGN_PERSON_AND_ORGANIZATION_ASSIGNMENT ( #71, #252, ( #49 ) ) ;
#201 = PRODUCT_DEFINITION ( 'UNKNOWN', '', #49, #91 ) ;
#202 = SECURITY_CLASSIFICATION_LEVEL ( 'unclassified' ) ;
#203 = CARTESIAN_POINT ( 'NONE',  ( 0.0000000000000000000, -1.985854438680148400E-016, 0.05866141732283430800 ) ) ;
#204 = EDGE_CURVE ( 'NONE', #242, #167, #107, .T. ) ;
#205 = DIRECTION ( 'NONE',  ( 0.0000000000000000000, 1.836909530733591800E-016, -1.000000000000000000 ) ) ;
#206 = ORIENTED_EDGE ( 'NONE', *, *, #65, .F. ) ;
#207 = LINE ( 'NONE', #317, #70 ) ;
#208 = ADVANCED_FACE ( 'NONE', ( #229 ), #171, .T. ) ;
#209 = AXIS2_PLACEMENT_3D ( 'NONE', #10, #226, #157 ) ;
#210 = ORIENTED_EDGE ( 'NONE', *, *, #59, .F. ) ;
#211 = ORIENTED_EDGE ( 'NONE', *, *, #144, .T. ) ;
#212 = DIRECTION ( 'NONE',  ( 0.0000000000000000000, 1.000000000000000000, 1.684606434548977200E-016 ) ) ;
#213 = LOCAL_TIME ( 11, 8, 16.00000000000000000, #169 ) ;
#214 = CC_DESIGN_APPROVAL ( #120, ( #201 ) ) ;
#215 = EDGE_CURVE ( 'NONE', #100, #253, #29, .T. ) ;
#216 = ORIENTED_EDGE ( 'NONE', *, *, #26, .T. ) ;
#217 = ORIENTED_EDGE ( 'NONE', *, *, #204, .F. ) ;
#218 = DIRECTION ( 'NONE',  ( 0.0000000000000000000, 1.836909530733591800E-016, -1.000000000000000000 ) ) ;
#219 = AXIS2_PLACEMENT_3D ( 'NONE', #286, #316, #155 ) ;
#220 = ORIENTED_EDGE ( 'NONE', *, *, #36, .F. ) ;
#221 = LINE ( 'NONE', #181, #14 ) ;
#222 = DIRECTION ( 'NONE',  ( -0.0000000000000000000, -1.836909530733591800E-016, 1.000000000000000000 ) ) ;
#223 = APPROVAL ( #146, 'UNSPECIFIED' ) ;
#224 = CC_DESIGN_DATE_AND_TIME_ASSIGNMENT ( #143, #240, ( #201 ) ) ;
#225 = CARTESIAN_POINT ( 'NONE',  ( 0.0000000000000000000, 0.0000000000000000000, 1.562992125984250300 ) ) ;
#226 = DIRECTION ( 'NONE',  ( -0.0000000000000000000, -1.836909530733565900E-016, 1.000000000000000000 ) ) ;
#227 = SPHERICAL_SURFACE ( 'NONE', #56, 1.621653543307084700 ) ;
#228 = DIRECTION ( 'NONE',  ( -0.0000000000000000000, -1.836909530733591800E-016, 1.000000000000000000 ) ) ;
#229 = FACE_OUTER_BOUND ( 'NONE', #277, .T. ) ;
#230 = CALENDAR_DATE ( 2017, 18, 4 ) ;
#231 = AXIS2_PLACEMENT_3D ( 'NONE', #298, #218, #47 ) ;
#232 = VERTEX_POINT ( 'NONE', #289 ) ;
#233 = CARTESIAN_POINT ( 'NONE',  ( 0.0000000000000000000, 0.0000000000000000000, -1.562992125984250300 ) ) ;
#234 = AXIS2_PLACEMENT_3D ( 'NONE', #101, #72, #134 ) ;
#235 = ADVANCED_FACE ( 'NONE', ( #104 ), #138, .T. ) ;
#236 = APPROVAL ( #3, 'UNSPECIFIED' ) ;
#237 = AXIS2_PLACEMENT_3D ( 'NONE', #105, #185, #48 ) ;
#238 = COORDINATED_UNIVERSAL_TIME_OFFSET ( 5, 0, .BEHIND. ) ;
#239 = ORIENTED_EDGE ( 'NONE', *, *, #145, .T. ) ;
#240 = DATE_TIME_ROLE ( 'creation_date' ) ;
#241 = APPROVAL_PERSON_ORGANIZATION ( #177, #223, #196 ) ;
#242 = VERTEX_POINT ( 'NONE', #163 ) ;
#243 = AXIS2_PLACEMENT_3D ( 'NONE', #233, #158, #6 ) ;
#244 = VERTEX_POINT ( 'NONE', #76 ) ;
#245 = ORIENTED_EDGE ( 'NONE', *, *, #51, .T. ) ;
#246 = CONICAL_SURFACE ( 'NONE', #219, 0.2500000000000000600, 0.7080077084945826100 ) ;
#247 = CARTESIAN_POINT ( 'NONE',  ( 0.0000000000000000000, 0.0000000000000000000, 1.562992125984250300 ) ) ;
#248 = EDGE_LOOP ( 'NONE', ( #273, #152, #210 ) ) ;
#249 = CC_DESIGN_PERSON_AND_ORGANIZATION_ASSIGNMENT ( #325, #187, ( #49 ) ) ;
#250 = ADVANCED_FACE ( 'NONE', ( #34 ), #246, .T. ) ;
#251 = LOCAL_TIME ( 11, 8, 16.00000000000000000, #238 ) ;
#252 = PERSON_AND_ORGANIZATION_ROLE ( 'design_supplier' ) ;
#253 = VERTEX_POINT ( 'NONE', #150 ) ;
#254 = SPHERICAL_SURFACE ( 'NONE', #97, 1.621653543307084700 ) ;
#255 = EDGE_CURVE ( 'NONE', #253, #33, #303, .T. ) ;
#256 = CC_DESIGN_PERSON_AND_ORGANIZATION_ASSIGNMENT ( #31, #313, ( #201 ) ) ;
#257 = DIRECTION ( 'NONE',  ( -1.000000000000000000, 0.0000000000000000000, 0.0000000000000000000 ) ) ;
#258 = UNCERTAINTY_MEASURE_WITH_UNIT (LENGTH_MEASURE( 1.000000000000000100E-005 ), #96, 'distance_accuracy_value', 'NONE');
#259 = DIRECTION ( 'NONE',  ( 7.964142664200956200E-017, 0.6503216004603044100, 0.7596590129622291500 ) ) ;
#260 = ORIENTED_EDGE ( 'NONE', *, *, #139, .T. ) ;
#261 = CALENDAR_DATE ( 2017, 18, 4 ) ;
#262 = VERTEX_POINT ( 'NONE', #203 ) ;
#263 = APPROVAL_ROLE ( '' ) ;
#264 = APPROVAL_STATUS ( 'not_yet_approved' ) ;
#265 = FACE_OUTER_BOUND ( 'NONE', #271, .T. ) ;
#266 = COORDINATED_UNIVERSAL_TIME_OFFSET ( 5, 0, .BEHIND. ) ;
#267 = ORIENTED_EDGE ( 'NONE', *, *, #144, .F. ) ;
#268 = PERSON ( 'UNSPECIFIED', 'UNSPECIFIED', 'UNSPECIFIED', ('UNSPECIFIED'), ('UNSPECIFIED'), ('UNSPECIFIED') ) ;
#269 = CIRCLE ( 'NONE', #322, 1.621653543307084700 ) ;
#270 = DIRECTION ( 'NONE',  ( 1.224646799147353200E-016, 1.000000000000000000, 0.0000000000000000000 ) ) ;
#271 = EDGE_LOOP ( 'NONE', ( #206, #89, #88, #170 ) ) ;
#272 = CC_DESIGN_APPROVAL ( #223, ( #125 ) ) ;
#273 = ORIENTED_EDGE ( 'NONE', *, *, #99, .T. ) ;
#274 = APPLICATION_PROTOCOL_DEFINITION ( 'international standard', 'config_control_design', 1994, #12 ) ;
#275 = CC_DESIGN_DATE_AND_TIME_ASSIGNMENT ( #124, #92, ( #125 ) ) ;
#276 = ORIENTED_EDGE ( 'NONE', *, *, #59, .T. ) ;
#277 = EDGE_LOOP ( 'NONE', ( #127, #7, #211, #239 ) ) ;
#278 = VECTOR ( 'NONE', #52, 39.37007874015748900 ) ;
#279 = FACE_OUTER_BOUND ( 'NONE', #133, .T. ) ;
#280 = CARTESIAN_POINT ( 'NONE',  ( 0.0000000000000000000, 1.654366394493509100E-017, -0.03140106897897232400 ) ) ;
#281 = DIRECTION ( 'NONE',  ( 1.000000000000000000, -1.224646799147353200E-016, -2.249565377136128000E-032 ) ) ;
#282 = DIRECTION ( 'NONE',  ( 0.0000000000000000000, -1.000000000000000000, -1.707404996040164000E-016 ) ) ;
#283 = PRODUCT_DEFINITION_SHAPE ( 'NONE', 'NONE',  #201 ) ;
#284 = EDGE_CURVE ( 'NONE', #244, #100, #162, .T. ) ;
#285 = CONICAL_SURFACE ( 'NONE', #195, 0.2500000000000000600, 0.7080077084945826100 ) ;
#286 = CARTESIAN_POINT ( 'NONE',  ( 0.0000000000000000000, 1.654366394493509100E-017, -0.03140106897897232400 ) ) ;
#287 = CARTESIAN_POINT ( 'NONE',  ( 3.061616997868383600E-017, 0.2500000000000000600, 0.05866141732283469000 ) ) ;
#288 = LINE ( 'NONE', #93, #278 ) ;
#289 = CARTESIAN_POINT ( 'NONE',  ( -2.966573681852639100E-017, -0.2422391242861278200, 0.04046676690496645700 ) ) ;
#290 = AXIS2_PLACEMENT_3D ( 'NONE', #247, #327, #301 ) ;
#291 = CIRCLE ( 'NONE', #234, 1.621653543307084700 ) ;
#292 = DIRECTION ( 'NONE',  ( -0.0000000000000000000, -1.836909530733566100E-016, 1.000000000000000000 ) ) ;
#293 = DATE_AND_TIME ( #319, #131 ) ;
#294 = FACE_OUTER_BOUND ( 'NONE', #159, .T. ) ;
#295 = VERTEX_POINT ( 'NONE', #328 ) ;
#296 = CARTESIAN_POINT ( 'NONE',  ( 0.0000000000000000000, -2.945408922487735700E-016, 0.04046676690496647100 ) ) ;
#297 = AXIS2_PLACEMENT_3D ( 'NONE', #225, #281, #270 ) ;
#298 = CARTESIAN_POINT ( 'NONE',  ( 0.0000000000000000000, 3.342192676094750600E-018, 0.04046676690496647100 ) ) ;
#299 = DIRECTION ( 'NONE',  ( -0.0000000000000000000, -1.836909530733534300E-016, 1.000000000000000000 ) ) ;
#300 = CALENDAR_DATE ( 2017, 18, 4 ) ;
#301 = DIRECTION ( 'NONE',  ( 0.0000000000000000000, -1.000000000000000000, -1.684606434548977200E-016 ) ) ;
#302 = DIRECTION ( 'NONE',  ( 0.0000000000000000000, -1.000000000000000000, -1.684606434548977200E-016 ) ) ;
#303 = CIRCLE ( 'NONE', #175, 0.2500000000000000600 ) ;
#304 = DIRECTION ( 'NONE',  ( 0.0000000000000000000, -1.000000000000000000, -1.878145495644180300E-016 ) ) ;
#305 = AXIS2_PLACEMENT_3D ( 'NONE', #197, #228, #9 ) ;
#306 = AXIS2_PLACEMENT_3D ( 'NONE', #132, #78, #13 ) ;
#307 = EDGE_CURVE ( 'NONE', #100, #244, #113, .T. ) ;
#308 = DIRECTION ( 'NONE',  ( 0.0000000000000000000, -1.000000000000000000, -1.878145495644180300E-016 ) ) ;
#309 = CARTESIAN_POINT ( 'NONE',  ( 0.0000000000000000000, 0.0000000000000000000, 1.562992125984250300 ) ) ;
#310 = DIRECTION ( 'NONE',  ( -0.0000000000000000000, -1.836909530733566100E-016, 1.000000000000000000 ) ) ;
#311 = ADVANCED_FACE ( 'NONE', ( #294 ), #115, .T. ) ;
#312 = PERSON_AND_ORGANIZATION ( #268, #30 ) ;
#313 = PERSON_AND_ORGANIZATION_ROLE ( 'creator' ) ;
#314 = LINE ( 'NONE', #32, #40 ) ;
#315 = LOCAL_TIME ( 11, 8, 16.00000000000000000, #266 ) ;
#316 = DIRECTION ( 'NONE',  ( -0.0000000000000000000, -1.836909530733534300E-016, 1.000000000000000000 ) ) ;
#317 = CARTESIAN_POINT ( 'NONE',  ( 0.0000000000000000000, -0.2500000000000000600, 0.05866141732283460700 ) ) ;
#318 = CARTESIAN_POINT ( 'NONE',  ( 0.0000000000000000000, 0.0000000000000000000, 0.05866141732283464800 ) ) ;
#319 = CALENDAR_DATE ( 2017, 18, 4 ) ;
#320 = AXIS2_PLACEMENT_3D ( 'NONE', #165, #299, #304 ) ;
#321 = CLOSED_SHELL ( 'NONE', ( #46, #250, #330, #235, #18, #154, #208, #311, #136, #102 ) ) ;
#322 = AXIS2_PLACEMENT_3D ( 'NONE', #130, #75, #118 ) ;
#323 = CARTESIAN_POINT ( 'NONE',  ( 0.0000000000000000000, 0.0000000000000000000, -1.562992125984250300 ) ) ;
#324 = AXIS2_PLACEMENT_3D ( 'NONE', #44, #205, #116 ) ;
#325 = PERSON_AND_ORGANIZATION ( #268, #30 ) ;
#326 = EDGE_LOOP ( 'NONE', ( #190, #178, #260 ) ) ;
#327 = DIRECTION ( 'NONE',  ( 1.000000000000000000, 0.0000000000000000000, 0.0000000000000000000 ) ) ;
#328 = CARTESIAN_POINT ( 'NONE',  ( 0.0000000000000000000, 0.2422391242861272100, 0.04046676690496649200 ) ) ;
#329 = ORIENTED_EDGE ( 'NONE', *, *, #215, .T. ) ;
#330 = ADVANCED_FACE ( 'NONE', ( #28 ), #174, .T. ) ;
ENDSEC;
END-ISO-10303-21;
