ISO-10303-21;
HEADER;
FILE_DESCRIPTION (( 'STEP AP203' ),
    '1' );
FILE_NAME ('21999-E0W.STEP',
    '2018-06-01T18:05:33',
    ( 'admin' ),
    ( '' ),
    'SwSTEP 2.0',
    'SolidWorks 2016',
    '' );
FILE_SCHEMA (( 'CONFIG_CONTROL_DESIGN' ));
ENDSEC;

DATA;
#1 = CARTESIAN_POINT ( 'NONE',  ( 0.0000000000000000000, 8.718918517338687300E-017, -0.1543098147821519700 ) ) ;
#2 = LINE ( 'NONE', #308, #73 ) ;
#3 = AXIS2_PLACEMENT_3D ( 'NONE', #150, #79, #89 ) ;
#4 = CARTESIAN_POINT ( 'NONE',  ( 0.0000000000000000000, 2.292409638218432500E-017, 0.1955445885838015500 ) ) ;
#5 = CARTESIAN_POINT ( 'NONE',  ( 0.0000000000000000000, 6.829619984160658000E-017, 0.5587784243427019700 ) ) ;
#6 = PERSON_AND_ORGANIZATION ( #293, #264 ) ;
#7 = SECURITY_CLASSIFICATION ( '', '', #252 ) ;
#8 = LINE ( 'NONE', #255, #327 ) ;
#9 = DIRECTION ( 'NONE',  ( 0.0000000000000000000, -1.000000000000000000, -2.025895274271475000E-016 ) ) ;
#10 = CARTESIAN_POINT ( 'NONE',  ( 0.0000000000000000000, 0.0000000000000000000, 0.0000000000000000000 ) ) ;
#11 = APPLICATION_PROTOCOL_DEFINITION ( 'international standard', 'config_control_design', 1994, #107 ) ;
#12 = SPHERICAL_SURFACE ( 'NONE', #81, 0.6102362204724413000 ) ;
#13 = CARTESIAN_POINT ( 'NONE',  ( 0.0000000000000000000, 6.829619984160658000E-017, 2.487991022767897900 ) ) ;
#14 = FACE_OUTER_BOUND ( 'NONE', #224, .T. ) ;
#15 = EDGE_CURVE ( 'NONE', #234, #49, #94, .T. ) ;
#16 = DIRECTION ( 'NONE',  ( -1.000000000000000000, 0.0000000000000000000, 0.0000000000000000000 ) ) ;
#17 = AXIS2_PLACEMENT_3D ( 'NONE', #1, #211, #210 ) ;
#18 = ORIENTED_EDGE ( 'NONE', *, *, #204, .T. ) ;
#19 = ORIENTED_EDGE ( 'NONE', *, *, #32, .T. ) ;
#20 = DIRECTION ( 'NONE',  ( 0.0000000000000000000, -1.000000000000000000, -2.071958370271109000E-016 ) ) ;
#21 = CARTESIAN_POINT ( 'NONE',  ( -6.055048479497754500E-017, -0.4944322300693974000, 0.2011123585144040700 ) ) ;
#22 = FACE_OUTER_BOUND ( 'NONE', #288, .T. ) ;
#23 = DIRECTION ( 'NONE',  ( 0.0000000000000000000, 1.000000000000000000, 2.238352872228137200E-016 ) ) ;
#24 = FACE_OUTER_BOUND ( 'NONE', #45, .T. ) ;
#25 = EDGE_LOOP ( 'NONE', ( #125, #19, #262, #178 ) ) ;
#26 = DIRECTION ( 'NONE',  ( 0.0000000000000000000, -1.000000000000000000, -2.048885995248197400E-016 ) ) ;
#27 = CC_DESIGN_PERSON_AND_ORGANIZATION_ASSIGNMENT ( #135, #72, ( #7 ) ) ;
#28 = APPROVAL_ROLE ( '' ) ;
#29 = CONICAL_SURFACE ( 'NONE', #140, 0.5000000000000000000, 0.7853981633974482800 ) ;
#30 = APPROVAL ( #141, 'UNSPECIFIED' ) ;
#31 = COORDINATED_UNIVERSAL_TIME_OFFSET ( 5, 0, .BEHIND. ) ;
#32 = EDGE_CURVE ( 'NONE', #284, #230, #166, .T. ) ;
#33 = FACE_OUTER_BOUND ( 'NONE', #325, .T. ) ;
#34 = ORIENTED_EDGE ( 'NONE', *, *, #104, .F. ) ;
#35 = FACE_OUTER_BOUND ( 'NONE', #248, .T. ) ;
#36 = PERSON_AND_ORGANIZATION ( #293, #264 ) ;
#37 = CC_DESIGN_APPROVAL ( #30, ( #297 ) ) ;
#38 = DIRECTION ( 'NONE',  ( -0.0000000000000000000, -1.836909530733566100E-016, 1.000000000000000000 ) ) ;
#39 = LOCAL_TIME ( 14, 5, 33.00000000000000000, #171 ) ;
#40 = AXIS2_PLACEMENT_3D ( 'NONE', #92, #291, #124 ) ;
#41 = CIRCLE ( 'NONE', #40, 0.4922739434107423800 ) ;
#42 = DIRECTION ( 'NONE',  ( -0.0000000000000000000, -1.836909530733587800E-016, 1.000000000000000000 ) ) ;
#43 = ADVANCED_FACE ( 'NONE', ( #24 ), #300, .T. ) ;
#44 = DIRECTION ( 'NONE',  ( 1.224646799147353200E-016, 1.000000000000000000, 0.0000000000000000000 ) ) ;
#45 = EDGE_LOOP ( 'NONE', ( #193, #192, #137 ) ) ;
#46 = APPROVAL_DATE_TIME ( #296, #243 ) ;
#47 = DIRECTION ( 'NONE',  ( 0.0000000000000000000, 0.0000000000000000000, 1.000000000000000000 ) ) ;
#48 = CC_DESIGN_DATE_AND_TIME_ASSIGNMENT ( #176, #245, ( #7 ) ) ;
#49 = VERTEX_POINT ( 'NONE', #131 ) ;
#50 = CIRCLE ( 'NONE', #17, 0.5000000000000000000 ) ;
#51 = DIRECTION ( 'NONE',  ( 0.0000000000000000000, -1.000000000000000000, -2.048885995248197400E-016 ) ) ;
#52 = DIRECTION ( 'NONE',  ( 0.0000000000000000000, 1.836909530733587800E-016, -1.000000000000000000 ) ) ;
#53 = CONICAL_SURFACE ( 'NONE', #290, 0.5000000000000000000, 0.6921607229508485200 ) ;
#54 = DIRECTION ( 'NONE',  ( 0.0000000000000000000, -1.000000000000000000, -1.878145495644180800E-016 ) ) ;
#55 = VECTOR ( 'NONE', #105, 39.37007874015748100 ) ;
#56 = COORDINATED_UNIVERSAL_TIME_OFFSET ( 5, 0, .BEHIND. ) ;
#57 = DIRECTION ( 'NONE',  ( -0.0000000000000000000, -1.836909530733566100E-016, 1.000000000000000000 ) ) ;
#58 = CARTESIAN_POINT ( 'NONE',  ( 0.0000000000000000000, 2.190134741713875300E-017, 0.2011123585144041500 ) ) ;
#59 = FACE_OUTER_BOUND ( 'NONE', #231, .T. ) ;
#60 = MANIFOLD_SOLID_BREP ( '21999-001-1-solid1', #66 ) ;
#61 = PERSON_AND_ORGANIZATION ( #293, #264 ) ;
#62 = ORIENTED_EDGE ( 'NONE', *, *, #198, .T. ) ;
#63 = DIRECTION ( 'NONE',  ( -0.0000000000000000000, -1.836909530733566100E-016, 1.000000000000000000 ) ) ;
#64 = APPROVAL ( #222, 'UNSPECIFIED' ) ;
#65 = CARTESIAN_POINT ( 'NONE',  ( 0.0000000000000000000, 8.718918517338687300E-017, -0.1543098147821519700 ) ) ;
#66 = CLOSED_SHELL ( 'NONE', ( #257, #283, #67, #162, #213, #127, #43, #70, #322, #226 ) ) ;
#67 = ADVANCED_FACE ( 'NONE', ( #33 ), #161, .T. ) ;
#68 = ORIENTED_EDGE ( 'NONE', *, *, #87, .T. ) ;
#69 = CC_DESIGN_PERSON_AND_ORGANIZATION_ASSIGNMENT ( #120, #318, ( #297 ) ) ;
#70 = ADVANCED_FACE ( 'NONE', ( #35 ), #168, .T. ) ;
#71 = CIRCLE ( 'NONE', #267, 0.5000000000000000000 ) ;
#72 = PERSON_AND_ORGANIZATION_ROLE ( 'classification_officer' ) ;
#73 = VECTOR ( 'NONE', #112, 39.37007874015748100 ) ;
#74 = PERSON_AND_ORGANIZATION ( #293, #264 ) ;
#75 = VECTOR ( 'NONE', #121, 39.37007874015747400 ) ;
#76 = CC_DESIGN_APPROVAL ( #64, ( #7 ) ) ;
#77 = CARTESIAN_POINT ( 'NONE',  ( 6.123233995736766000E-017, -0.5000000000000000000, 0.1955445885838014400 ) ) ;
#78 = ORIENTED_EDGE ( 'NONE', *, *, #317, .T. ) ;
#79 = DIRECTION ( 'NONE',  ( 0.0000000000000000000, 1.836909530733566100E-016, -1.000000000000000000 ) ) ;
#80 = AXIS2_PLACEMENT_3D ( 'NONE', #58, #57, #164 ) ;
#81 = AXIS2_PLACEMENT_3D ( 'NONE', #5, #170, #268 ) ;
#82 = DIRECTION ( 'NONE',  ( 0.0000000000000000000, 1.836909530733566100E-016, -1.000000000000000000 ) ) ;
#83 = AXIS2_PLACEMENT_3D ( 'NONE', #85, #143, #44 ) ;
#84 = CARTESIAN_POINT ( 'NONE',  ( 0.0000000000000000000, 6.829619984160658000E-017, -0.05145779612973953900 ) ) ;
#85 = CARTESIAN_POINT ( 'NONE',  ( 0.0000000000000000000, 6.829619984160658000E-017, 2.487991022767897900 ) ) ;
#86 = DIRECTION ( 'NONE',  ( -1.000000000000000000, 0.0000000000000000000, -0.0000000000000000000 ) ) ;
#87 = EDGE_CURVE ( 'NONE', #153, #230, #101, .T. ) ;
#88 =( CONVERSION_BASED_UNIT ( 'INCH', #200 ) LENGTH_UNIT ( ) NAMED_UNIT ( #179 ) );
#89 = DIRECTION ( 'NONE',  ( 0.0000000000000000000, 1.000000000000000000, 2.048885995248197400E-016 ) ) ;
#90 = CC_DESIGN_SECURITY_CLASSIFICATION ( #7, ( #297 ) ) ;
#91 = FACE_OUTER_BOUND ( 'NONE', #244, .T. ) ;
#92 = CARTESIAN_POINT ( 'NONE',  ( 0.0000000000000000000, 5.553749604663558200E-016, -0.1636298245050188100 ) ) ;
#93 = APPROVAL_DATE_TIME ( #266, #30 ) ;
#94 = CIRCLE ( 'NONE', #109, 0.6102362204724413000 ) ;
#95 = CIRCLE ( 'NONE', #83, 2.696929133858267500 ) ;
#96 = LOCAL_TIME ( 14, 5, 33.00000000000000000, #190 ) ;
#97 = ORIENTED_EDGE ( 'NONE', *, *, #194, .T. ) ;
#98 = ORIENTED_EDGE ( 'NONE', *, *, #249, .T. ) ;
#99 = CARTESIAN_POINT ( 'NONE',  ( 0.0000000000000000000, 2.292409638218432500E-017, 0.1955445885838015500 ) ) ;
#100 = PERSON_AND_ORGANIZATION_ROLE ( 'design_owner' ) ;
#101 = LINE ( 'NONE', #316, #106 ) ;
#102 = AXIS2_PLACEMENT_3D ( 'NONE', #207, #86, #47 ) ;
#103 = CARTESIAN_POINT ( 'NONE',  ( 0.0000000000000000000, 6.829619984160658000E-017, 2.487991022767897900 ) ) ;
#104 = EDGE_CURVE ( 'NONE', #230, #132, #116, .T. ) ;
#105 = DIRECTION ( 'NONE',  ( 8.659560562354931600E-017, -0.7071067811865473500, -0.7071067811865476800 ) ) ;
#106 = VECTOR ( 'NONE', #187, 39.37007874015748100 ) ;
#107 = APPLICATION_CONTEXT ( 'configuration controlled 3d designs of mechanical parts and assemblies' ) ;
#108 = PRODUCT_RELATED_PRODUCT_CATEGORY ( 'detail', '', ( #270 ) ) ;
#109 = AXIS2_PLACEMENT_3D ( 'NONE', #250, #228, #216 ) ;
#110 = PERSON_AND_ORGANIZATION_ROLE ( 'creator' ) ;
#111 = CALENDAR_DATE ( 2018, 1, 6 ) ;
#112 = DIRECTION ( 'NONE',  ( -0.0000000000000000000, -1.836909530733566100E-016, 1.000000000000000000 ) ) ;
#113 = ADVANCED_BREP_SHAPE_REPRESENTATION ( '21999-E0W', ( #60, #118 ), #301 ) ;
#114 = DATE_AND_TIME ( #111, #39 ) ;
#115 = APPROVAL_ROLE ( '' ) ;
#116 = CIRCLE ( 'NONE', #280, 0.5000000000000000000 ) ;
#117 = ORIENTED_EDGE ( 'NONE', *, *, #221, .T. ) ;
#118 = AXIS2_PLACEMENT_3D ( 'NONE', #10, #183, #196 ) ;
#119 = EDGE_CURVE ( 'NONE', #284, #49, #165, .T. ) ;
#120 = PERSON_AND_ORGANIZATION ( #293, #264 ) ;
#121 = DIRECTION ( 'NONE',  ( 0.0000000000000000000, -0.6382021439830981600, 0.7698688352020602900 ) ) ;
#122 = AXIS2_PLACEMENT_3D ( 'NONE', #103, #202, #9 ) ;
#123 = ORIENTED_EDGE ( 'NONE', *, *, #194, .F. ) ;
#124 = DIRECTION ( 'NONE',  ( 0.0000000000000000000, -1.000000000000000000, -2.081042499479454300E-016 ) ) ;
#125 = ORIENTED_EDGE ( 'NONE', *, *, #119, .F. ) ;
#126 = DIRECTION ( 'NONE',  ( 0.0000000000000000000, 0.7071067811865475700, -0.7071067811865474600 ) ) ;
#127 = ADVANCED_FACE ( 'NONE', ( #14 ), #199, .F. ) ;
#128 = DIRECTION ( 'NONE',  ( -1.000000000000000000, 1.224646799147353200E-016, 2.249565377136128300E-032 ) ) ;
#129 = PERSON_AND_ORGANIZATION ( #293, #264 ) ;
#130 = EDGE_LOOP ( 'NONE', ( #260, #62, #236 ) ) ;
#131 = CARTESIAN_POINT ( 'NONE',  ( 0.0000000000000000000, 0.4944322300693975200, 0.2011123585144042300 ) ) ;
#132 = VERTEX_POINT ( 'NONE', #184 ) ;
#133 = CALENDAR_DATE ( 2018, 1, 6 ) ;
#134 = ORIENTED_EDGE ( 'NONE', *, *, #32, .F. ) ;
#135 = PERSON_AND_ORGANIZATION ( #293, #264 ) ;
#136 = DIRECTION ( 'NONE',  ( 0.0000000000000000000, 1.000000000000000000, 2.048885995248197400E-016 ) ) ;
#137 = ORIENTED_EDGE ( 'NONE', *, *, #259, .T. ) ;
#138 = DESIGN_CONTEXT ( 'detailed design', #174, 'design' ) ;
#139 = DIRECTION ( 'NONE',  ( 0.0000000000000000000, -1.000000000000000000, -2.048885995248197400E-016 ) ) ;
#140 = AXIS2_PLACEMENT_3D ( 'NONE', #4, #82, #136 ) ;
#141 = APPROVAL_STATUS ( 'not_yet_approved' ) ;
#142 = CALENDAR_DATE ( 2018, 1, 6 ) ;
#143 = DIRECTION ( 'NONE',  ( 1.000000000000000000, -1.224646799147353200E-016, -2.249565377136128300E-032 ) ) ;
#144 = CIRCLE ( 'NONE', #212, 0.5000000000000000000 ) ;
#145 = PRODUCT_DEFINITION ( 'UNKNOWN', '', #297, #138 ) ;
#146 = ORIENTED_EDGE ( 'NONE', *, *, #180, .T. ) ;
#147 = APPROVAL_DATE_TIME ( #114, #64 ) ;
#148 = DIRECTION ( 'NONE',  ( 0.0000000000000000000, -1.000000000000000000, -2.048885995248197400E-016 ) ) ;
#149 = VERTEX_POINT ( 'NONE', #189 ) ;
#150 = CARTESIAN_POINT ( 'NONE',  ( 0.0000000000000000000, 2.292409638218432500E-017, 0.1955445885838015500 ) ) ;
#151 = CARTESIAN_POINT ( 'NONE',  ( 0.0000000000000000000, 2.190134741713875300E-017, 0.2011123585144041500 ) ) ;
#152 =( LENGTH_UNIT ( ) NAMED_UNIT ( * ) SI_UNIT ( $, .METRE. ) );
#153 = VERTEX_POINT ( 'NONE', #285 ) ;
#154 = ORIENTED_EDGE ( 'NONE', *, *, #317, .F. ) ;
#155 = AXIS2_PLACEMENT_3D ( 'NONE', #151, #223, #20 ) ;
#156 = CARTESIAN_POINT ( 'NONE',  ( 0.0000000000000000000, 6.829619984160658000E-017, -0.05145779612973953900 ) ) ;
#157 = COORDINATED_UNIVERSAL_TIME_OFFSET ( 5, 0, .BEHIND. ) ;
#158 =( NAMED_UNIT ( * ) PLANE_ANGLE_UNIT ( ) SI_UNIT ( $, .RADIAN. ) );
#159 = ORIENTED_EDGE ( 'NONE', *, *, #15, .T. ) ;
#160 = ORIENTED_EDGE ( 'NONE', *, *, #330, .F. ) ;
#161 = CYLINDRICAL_SURFACE ( 'NONE', #206, 0.5000000000000000000 ) ;
#162 = ADVANCED_FACE ( 'NONE', ( #172 ), #242, .T. ) ;
#163 = APPROVAL_STATUS ( 'not_yet_approved' ) ;
#164 = DIRECTION ( 'NONE',  ( 0.0000000000000000000, -1.000000000000000000, -2.071958370271109000E-016 ) ) ;
#165 = CIRCLE ( 'NONE', #80, 0.4944322300693974000 ) ;
#166 = LINE ( 'NONE', #77, #55 ) ;
#167 = DIRECTION ( 'NONE',  ( 0.0000000000000000000, -1.000000000000000000, -2.081042499479454300E-016 ) ) ;
#168 = CYLINDRICAL_SURFACE ( 'NONE', #287, 0.5000000000000000000 ) ;
#169 = CARTESIAN_POINT ( 'NONE',  ( 0.0000000000000000000, 6.829619984160658000E-017, 0.5587784243427019700 ) ) ;
#170 = DIRECTION ( 'NONE',  ( -1.000000000000000000, 0.0000000000000000000, 0.0000000000000000000 ) ) ;
#171 = COORDINATED_UNIVERSAL_TIME_OFFSET ( 5, 0, .BEHIND. ) ;
#172 = FACE_OUTER_BOUND ( 'NONE', #130, .T. ) ;
#173 = AXIS2_PLACEMENT_3D ( 'NONE', #169, #128, #240 ) ;
#174 = APPLICATION_CONTEXT ( 'configuration controlled 3d designs of mechanical parts and assemblies' ) ;
#175 = CONICAL_SURFACE ( 'NONE', #3, 0.5000000000000000000, 0.7853981633974482800 ) ;
#176 = DATE_AND_TIME ( #254, #282 ) ;
#177 = VERTEX_POINT ( 'NONE', #310 ) ;
#178 = ORIENTED_EDGE ( 'NONE', *, *, #253, .F. ) ;
#179 = DIMENSIONAL_EXPONENTS ( 1.000000000000000000, 0.0000000000000000000, 0.0000000000000000000, 0.0000000000000000000, 0.0000000000000000000, 0.0000000000000000000, 0.0000000000000000000 ) ;
#180 = EDGE_CURVE ( 'NONE', #49, #284, #299, .T. ) ;
#181 = PERSON_AND_ORGANIZATION ( #293, #264 ) ;
#182 = ORIENTED_EDGE ( 'NONE', *, *, #307, .F. ) ;
#183 = DIRECTION ( 'NONE',  ( 0.0000000000000000000, 0.0000000000000000000, 1.000000000000000000 ) ) ;
#184 = CARTESIAN_POINT ( 'NONE',  ( 6.123233995736766000E-017, 0.5000000000000000000, 0.1955445885838016400 ) ) ;
#185 = FACE_OUTER_BOUND ( 'NONE', #289, .T. ) ;
#186 = DIRECTION ( 'NONE',  ( 0.0000000000000000000, -1.000000000000000000, -1.878145495644180800E-016 ) ) ;
#187 = DIRECTION ( 'NONE',  ( -0.0000000000000000000, -1.836909530733566100E-016, 1.000000000000000000 ) ) ;
#188 = ORIENTED_EDGE ( 'NONE', *, *, #119, .T. ) ;
#189 = CARTESIAN_POINT ( 'NONE',  ( 6.028617091016121300E-017, 0.4922739434107438700, -0.1636298245050187600 ) ) ;
#190 = COORDINATED_UNIVERSAL_TIME_OFFSET ( 5, 0, .BEHIND. ) ;
#191 = FACE_OUTER_BOUND ( 'NONE', #25, .T. ) ;
#192 = ORIENTED_EDGE ( 'NONE', *, *, #237, .T. ) ;
#193 = ORIENTED_EDGE ( 'NONE', *, *, #198, .F. ) ;
#194 = EDGE_CURVE ( 'NONE', #294, #132, #2, .T. ) ;
#195 = ORIENTED_EDGE ( 'NONE', *, *, #180, .F. ) ;
#196 = DIRECTION ( 'NONE',  ( 1.000000000000000000, 0.0000000000000000000, 0.0000000000000000000 ) ) ;
#197 =( NAMED_UNIT ( * ) SI_UNIT ( $, .STERADIAN. ) SOLID_ANGLE_UNIT ( ) );
#198 = EDGE_CURVE ( 'NONE', #177, #149, #95, .T. ) ;
#199 = SPHERICAL_SURFACE ( 'NONE', #258, 0.6102362204724413000 ) ;
#200 = LENGTH_MEASURE_WITH_UNIT ( LENGTH_MEASURE( 0.02539999999999999900 ), #152 );
#201 = CC_DESIGN_PERSON_AND_ORGANIZATION_ASSIGNMENT ( #6, #110, ( #145 ) ) ;
#202 = DIRECTION ( 'NONE',  ( 1.000000000000000000, 0.0000000000000000000, 0.0000000000000000000 ) ) ;
#203 = CC_DESIGN_DATE_AND_TIME_ASSIGNMENT ( #326, #328, ( #145 ) ) ;
#204 = EDGE_CURVE ( 'NONE', #294, #153, #50, .T. ) ;
#205 = DIRECTION ( 'NONE',  ( 0.0000000000000000000, -1.000000000000000000, -2.025895274271475000E-016 ) ) ;
#206 = AXIS2_PLACEMENT_3D ( 'NONE', #84, #63, #186 ) ;
#207 = CARTESIAN_POINT ( 'NONE',  ( 0.0000000000000000000, 6.829619984160658000E-017, 2.487991022767897900 ) ) ;
#208 = CARTESIAN_POINT ( 'NONE',  ( 0.0000000000000000000, 8.718918517338687300E-017, -0.1543098147821519400 ) ) ;
#209 = ORIENTED_EDGE ( 'NONE', *, *, #87, .F. ) ;
#210 = DIRECTION ( 'NONE',  ( 0.0000000000000000000, -1.000000000000000000, -2.048885995248197400E-016 ) ) ;
#211 = DIRECTION ( 'NONE',  ( -0.0000000000000000000, -1.836909530733587800E-016, 1.000000000000000000 ) ) ;
#212 = AXIS2_PLACEMENT_3D ( 'NONE', #229, #286, #26 ) ;
#213 = ADVANCED_FACE ( 'NONE', ( #185 ), #12, .F. ) ;
#214 = CC_DESIGN_PERSON_AND_ORGANIZATION_ASSIGNMENT ( #36, #100, ( #270 ) ) ;
#215 = APPROVAL_PERSON_ORGANIZATION ( #74, #243, #115 ) ;
#216 = DIRECTION ( 'NONE',  ( 0.0000000000000000000, 0.0000000000000000000, -1.000000000000000000 ) ) ;
#217 = ORIENTED_EDGE ( 'NONE', *, *, #330, .T. ) ;
#218 = CARTESIAN_POINT ( 'NONE',  ( 0.0000000000000000000, 2.177572644863399900E-016, -0.05145779612973929600 ) ) ;
#219 = VECTOR ( 'NONE', #126, 39.37007874015748100 ) ;
#220 = AXIS2_PLACEMENT_3D ( 'NONE', #273, #52, #167 ) ;
#221 = EDGE_CURVE ( 'NONE', #234, #284, #309, .T. ) ;
#222 = APPROVAL_STATUS ( 'not_yet_approved' ) ;
#223 = DIRECTION ( 'NONE',  ( -0.0000000000000000000, -1.836909530733566100E-016, 1.000000000000000000 ) ) ;
#224 = EDGE_LOOP ( 'NONE', ( #314, #159, #146 ) ) ;
#225 = APPROVAL_PERSON_ORGANIZATION ( #181, #30, #246 ) ;
#226 = ADVANCED_FACE ( 'NONE', ( #59 ), #279, .T. ) ;
#227 = DIRECTION ( 'NONE',  ( -0.0000000000000000000, -1.836909530733566100E-016, 1.000000000000000000 ) ) ;
#228 = DIRECTION ( 'NONE',  ( 1.000000000000000000, 0.0000000000000000000, 0.0000000000000000000 ) ) ;
#229 = CARTESIAN_POINT ( 'NONE',  ( 0.0000000000000000000, 2.292409638218432500E-017, 0.1955445885838015500 ) ) ;
#230 = VERTEX_POINT ( 'NONE', #232 ) ;
#231 = EDGE_LOOP ( 'NONE', ( #154, #274, #261, #329 ) ) ;
#232 = CARTESIAN_POINT ( 'NONE',  ( 0.0000000000000000000, -0.5000000000000000000, 0.1955445885838014400 ) ) ;
#233 = LINE ( 'NONE', #235, #219 ) ;
#234 = VERTEX_POINT ( 'NONE', #218 ) ;
#235 = CARTESIAN_POINT ( 'NONE',  ( 0.0000000000000000000, 0.5000000000000000000, 0.1955445885838016400 ) ) ;
#236 = ORIENTED_EDGE ( 'NONE', *, *, #295, .T. ) ;
#237 = EDGE_CURVE ( 'NONE', #177, #278, #272, .T. ) ;
#238 = CARTESIAN_POINT ( 'NONE',  ( 0.0000000000000000000, 6.829619984160658000E-017, 0.5587784243427019700 ) ) ;
#239 = DIRECTION ( 'NONE',  ( -0.0000000000000000000, -1.836909530733587800E-016, 1.000000000000000000 ) ) ;
#240 = DIRECTION ( 'NONE',  ( -1.224646799147353500E-016, -1.000000000000000000, 0.0000000000000000000 ) ) ;
#241 = ORIENTED_EDGE ( 'NONE', *, *, #253, .T. ) ;
#242 = SPHERICAL_SURFACE ( 'NONE', #303, 2.696929133858267500 ) ;
#243 = APPROVAL ( #163, 'UNSPECIFIED' ) ;
#244 = EDGE_LOOP ( 'NONE', ( #247, #78, #256, #182 ) ) ;
#245 = DATE_TIME_ROLE ( 'classification_date' ) ;
#246 = APPROVAL_ROLE ( '' ) ;
#247 = ORIENTED_EDGE ( 'NONE', *, *, #295, .F. ) ;
#248 = EDGE_LOOP ( 'NONE', ( #123, #18, #68, #160 ) ) ;
#249 = EDGE_CURVE ( 'NONE', #153, #294, #71, .T. ) ;
#250 = CARTESIAN_POINT ( 'NONE',  ( 0.0000000000000000000, 6.829619984160658000E-017, 0.5587784243427019700 ) ) ;
#251 = LOCAL_TIME ( 14, 5, 33.00000000000000000, #157 ) ;
#252 = SECURITY_CLASSIFICATION_LEVEL ( 'unclassified' ) ;
#253 = EDGE_CURVE ( 'NONE', #49, #132, #233, .T. ) ;
#254 = CALENDAR_DATE ( 2018, 1, 6 ) ;
#255 = CARTESIAN_POINT ( 'NONE',  ( 6.123233995736766000E-017, 0.5000000000000001100, -0.1543098147821518300 ) ) ;
#256 = ORIENTED_EDGE ( 'NONE', *, *, #249, .F. ) ;
#257 = ADVANCED_FACE ( 'NONE', ( #91 ), #53, .T. ) ;
#258 = AXIS2_PLACEMENT_3D ( 'NONE', #238, #16, #23 ) ;
#259 = EDGE_CURVE ( 'NONE', #278, #149, #320, .T. ) ;
#260 = ORIENTED_EDGE ( 'NONE', *, *, #237, .F. ) ;
#261 = ORIENTED_EDGE ( 'NONE', *, *, #307, .T. ) ;
#262 = ORIENTED_EDGE ( 'NONE', *, *, #104, .T. ) ;
#263 = PERSON_AND_ORGANIZATION_ROLE ( 'design_supplier' ) ;
#264 = ORGANIZATION ( 'UNSPECIFIED', 'UNSPECIFIED', '' ) ;
#265 = LINE ( 'NONE', #277, #75 ) ;
#266 = DATE_AND_TIME ( #142, #251 ) ;
#267 = AXIS2_PLACEMENT_3D ( 'NONE', #65, #305, #148 ) ;
#268 = DIRECTION ( 'NONE',  ( 0.0000000000000000000, 1.000000000000000000, 2.238352872228137200E-016 ) ) ;
#269 = CALENDAR_DATE ( 2018, 1, 6 ) ;
#270 = PRODUCT ( '21999-E0W', '21999-E0W', '', ( #298 ) ) ;
#271 = CARTESIAN_POINT ( 'NONE',  ( 0.0000000000000000000, -0.4922739434107427600, -0.1636298245050188700 ) ) ;
#272 = CIRCLE ( 'NONE', #102, 2.696929133858267500 ) ;
#273 = CARTESIAN_POINT ( 'NONE',  ( 0.0000000000000000000, 5.553749604663558200E-016, -0.1636298245050188100 ) ) ;
#274 = ORIENTED_EDGE ( 'NONE', *, *, #259, .F. ) ;
#275 = LOCAL_TIME ( 14, 5, 33.00000000000000000, #56 ) ;
#276 = CC_DESIGN_APPROVAL ( #243, ( #145 ) ) ;
#277 = CARTESIAN_POINT ( 'NONE',  ( 0.0000000000000000000, -0.4999999999999999400, -0.1543098147821520300 ) ) ;
#278 = VERTEX_POINT ( 'NONE', #271 ) ;
#279 = CONICAL_SURFACE ( 'NONE', #313, 0.5000000000000000000, 0.6921607229508485200 ) ;
#280 = AXIS2_PLACEMENT_3D ( 'NONE', #99, #227, #312 ) ;
#281 = CARTESIAN_POINT ( 'NONE',  ( 6.123233995736767300E-017, 0.5000000000000001100, -0.1543098147821518600 ) ) ;
#282 = LOCAL_TIME ( 14, 5, 33.00000000000000000, #31 ) ;
#283 = ADVANCED_FACE ( 'NONE', ( #191 ), #29, .T. ) ;
#284 = VERTEX_POINT ( 'NONE', #21 ) ;
#285 = CARTESIAN_POINT ( 'NONE',  ( 0.0000000000000000000, -0.4999999999999999400, -0.1543098147821520800 ) ) ;
#286 = DIRECTION ( 'NONE',  ( -0.0000000000000000000, -1.836909530733566100E-016, 1.000000000000000000 ) ) ;
#287 = AXIS2_PLACEMENT_3D ( 'NONE', #156, #38, #54 ) ;
#288 = EDGE_LOOP ( 'NONE', ( #134, #195, #241, #217 ) ) ;
#289 = EDGE_LOOP ( 'NONE', ( #304, #117, #188 ) ) ;
#290 = AXIS2_PLACEMENT_3D ( 'NONE', #306, #42, #51 ) ;
#291 = DIRECTION ( 'NONE',  ( 0.0000000000000000000, 1.836909530733587800E-016, -1.000000000000000000 ) ) ;
#292 = APPROVAL_PERSON_ORGANIZATION ( #61, #64, #28 ) ;
#293 = PERSON ( 'UNSPECIFIED', 'UNSPECIFIED', 'UNSPECIFIED', ('UNSPECIFIED'), ('UNSPECIFIED'), ('UNSPECIFIED') ) ;
#294 = VERTEX_POINT ( 'NONE', #281 ) ;
#295 = EDGE_CURVE ( 'NONE', #149, #278, #41, .T. ) ;
#296 = DATE_AND_TIME ( #133, #96 ) ;
#297 = PRODUCT_DEFINITION_FORMATION_WITH_SPECIFIED_SOURCE ( 'ANY', '', #270, .NOT_KNOWN. ) ;
#298 = MECHANICAL_CONTEXT ( 'NONE', #107, 'mechanical' ) ;
#299 = CIRCLE ( 'NONE', #155, 0.4944322300693974000 ) ;
#300 = SPHERICAL_SURFACE ( 'NONE', #122, 2.696929133858267500 ) ;
#301 =( GEOMETRIC_REPRESENTATION_CONTEXT ( 3 ) GLOBAL_UNCERTAINTY_ASSIGNED_CONTEXT ( ( #315 ) ) GLOBAL_UNIT_ASSIGNED_CONTEXT ( ( #88, #158, #197 ) ) REPRESENTATION_CONTEXT ( 'NONE', 'WORKASPACE' ) );
#302 = APPLICATION_PROTOCOL_DEFINITION ( 'international standard', 'config_control_design', 1994, #174 ) ;
#303 = AXIS2_PLACEMENT_3D ( 'NONE', #13, #321, #205 ) ;
#304 = ORIENTED_EDGE ( 'NONE', *, *, #15, .F. ) ;
#305 = DIRECTION ( 'NONE',  ( -0.0000000000000000000, -1.836909530733587800E-016, 1.000000000000000000 ) ) ;
#306 = CARTESIAN_POINT ( 'NONE',  ( 0.0000000000000000000, 8.718918517338687300E-017, -0.1543098147821519400 ) ) ;
#307 = EDGE_CURVE ( 'NONE', #278, #153, #265, .T. ) ;
#308 = CARTESIAN_POINT ( 'NONE',  ( 6.123233995736766000E-017, 0.5000000000000001100, -0.05145779612973944200 ) ) ;
#309 = CIRCLE ( 'NONE', #173, 0.6102362204724413000 ) ;
#310 = CARTESIAN_POINT ( 'NONE',  ( 0.0000000000000000000, 3.985584012459953500E-016, -0.2089381110903695800 ) ) ;
#311 = SHAPE_DEFINITION_REPRESENTATION ( #323, #113 ) ;
#312 = DIRECTION ( 'NONE',  ( 0.0000000000000000000, -1.000000000000000000, -2.048885995248197400E-016 ) ) ;
#313 = AXIS2_PLACEMENT_3D ( 'NONE', #208, #239, #139 ) ;
#314 = ORIENTED_EDGE ( 'NONE', *, *, #221, .F. ) ;
#315 = UNCERTAINTY_MEASURE_WITH_UNIT (LENGTH_MEASURE( 1.000000000000000100E-005 ), #88, 'distance_accuracy_value', 'NONE');
#316 = CARTESIAN_POINT ( 'NONE',  ( 0.0000000000000000000, -0.4999999999999999400, -0.05145779612973962900 ) ) ;
#317 = EDGE_CURVE ( 'NONE', #149, #294, #8, .T. ) ;
#318 = PERSON_AND_ORGANIZATION_ROLE ( 'creator' ) ;
#319 = CC_DESIGN_PERSON_AND_ORGANIZATION_ASSIGNMENT ( #129, #263, ( #297 ) ) ;
#320 = CIRCLE ( 'NONE', #220, 0.4922739434107423800 ) ;
#321 = DIRECTION ( 'NONE',  ( 1.000000000000000000, 0.0000000000000000000, 0.0000000000000000000 ) ) ;
#322 = ADVANCED_FACE ( 'NONE', ( #22 ), #175, .T. ) ;
#323 = PRODUCT_DEFINITION_SHAPE ( 'NONE', 'NONE',  #145 ) ;
#324 = DIRECTION ( 'NONE',  ( 7.815722128378791500E-017, 0.6382021439830978200, 0.7698688352020604000 ) ) ;
#325 = EDGE_LOOP ( 'NONE', ( #98, #97, #34, #209 ) ) ;
#326 = DATE_AND_TIME ( #269, #275 ) ;
#327 = VECTOR ( 'NONE', #324, 39.37007874015748100 ) ;
#328 = DATE_TIME_ROLE ( 'creation_date' ) ;
#329 = ORIENTED_EDGE ( 'NONE', *, *, #204, .F. ) ;
#330 = EDGE_CURVE ( 'NONE', #132, #230, #144, .T. ) ;
ENDSEC;
END-ISO-10303-21;
