  0
SECTION
  2
HEADER
  9
$ACADVER
  1
AC1012
  9
$DWGCODEPAGE
  3
ANSI_1252
  9
$INSBASE
 10
0.0
 20
0.0
 30
0.0
  9
$EXTMIN
 10
0.2509911939381268
 20
0.2668792833318534
 30
-0.0000054893081786
  9
$EXTMAX
 10
11.28134719485549
 20
8.79748428197081
 30
0.3600054943376274
  9
$LIMMIN
 10
0.0
 20
0.0
  9
$LIMMAX
 10
11.266175
 20
8.78235
  9
$ORTHOMODE
 70
     1
  9
$REGENMODE
 70
     1
  9
$FILLMODE
 70
     1
  9
$QTEXTMODE
 70
     0
  9
$MIRRTEXT
 70
     0
  9
$DRAGMODE
 70
     2
  9
$LTSCALE
 40
0.35
  9
$OSMODE
 70
    37
  9
$ATTMODE
 70
     1
  9
$TEXTSIZE
 40
0.08
  9
$TRACEWID
 40
0.05
  9
$TEXTSTYLE
  7
STANDARD
  9
$CLAYER
  8
S1
  9
$CELTYPE
  6
BYLAYER
  9
$CECOLOR
 62
   256
  9
$CELTSCALE
 40
1.0
  9
$DELOBJ
 70
     1
  9
$DISPSILH
 70
     0
  9
$DIMSCALE
 40
1.0
  9
$DIMASZ
 40
0.18
  9
$DIMEXO
 40
0.04
  9
$DIMDLI
 40
0.4
  9
$DIMRND
 40
0.0
  9
$DIMDLE
 40
0.0
  9
$DIMEXE
 40
0.04
  9
$DIMTP
 40
0.0
  9
$DIMTM
 40
0.0
  9
$DIMTXT
 40
0.08
  9
$DIMCEN
 40
0.07
  9
$DIMTSZ
 40
0.0
  9
$DIMTOL
 70
     0
  9
$DIMLIM
 70
     0
  9
$DIMTIH
 70
     1
  9
$DIMTOH
 70
     1
  9
$DIMSE1
 70
     0
  9
$DIMSE2
 70
     0
  9
$DIMTAD
 70
     0
  9
$DIMZIN
 70
     0
  9
$DIMBLK
  1

  9
$DIMASO
 70
     0
  9
$DIMSHO
 70
     1
  9
$DIMPOST
  1

  9
$DIMAPOST
  1

  9
$DIMALT
 70
     0
  9
$DIMALTD
 70
     2
  9
$DIMALTF
 40
25.4
  9
$DIMLFAC
 40
0.5
  9
$DIMTOFL
 70
     0
  9
$DIMTVP
 40
0.0
  9
$DIMTIX
 70
     0
  9
$DIMSOXD
 70
     0
  9
$DIMSAH
 70
     0
  9
$DIMBLK1
  1

  9
$DIMBLK2
  1

  9
$DIMSTYLE
  2
STANDARD
  9
$DIMCLRD
 70
     0
  9
$DIMCLRE
 70
     0
  9
$DIMCLRT
 70
   256
  9
$DIMTFAC
 40
1.0
  9
$DIMGAP
 40
0.05
  9
$DIMJUST
 70
     0
  9
$DIMSD1
 70
     0
  9
$DIMSD2
 70
     0
  9
$DIMTOLJ
 70
     1
  9
$DIMTZIN
 70
     0
  9
$DIMALTZ
 70
     0
  9
$DIMALTTZ
 70
     0
  9
$DIMFIT
 70
     0
  9
$DIMUPT
 70
     1
  9
$DIMUNIT
 70
     2
  9
$DIMDEC
 70
     3
  9
$DIMTDEC
 70
     3
  9
$DIMALTU
 70
     2
  9
$DIMALTTD
 70
     2
  9
$DIMTXSTY
  7
STANDARD
  9
$DIMAUNIT
 70
     0
  9
$LUNITS
 70
     2
  9
$LUPREC
 70
     8
  9
$SKETCHINC
 40
0.1
  9
$FILLETRAD
 40
0.0
  9
$AUNITS
 70
     0
  9
$AUPREC
 70
     8
  9
$MENU
  1
C:\R13\WIN\SUPPORT\ACAD
  9
$ELEVATION
 40
0.0
  9
$PELEVATION
 40
0.0
  9
$THICKNESS
 40
0.0
  9
$LIMCHECK
 70
     1
  9
$BLIPMODE
 70
     0
  9
$CHAMFERA
 40
0.0
  9
$CHAMFERB
 40
0.0
  9
$CHAMFERC
 40
0.0
  9
$CHAMFERD
 40
0.0
  9
$SKPOLY
 70
     0
  9
$TDCREATE
 40
2451765.675756620
  9
$TDUPDATE
 40
2452929.461923379
  9
$TDINDWG
 40
0.1108606481
  9
$TDUSRTIMER
 40
0.1108606481
  9
$USRTIMER
 70
     1
  9
$ANGBASE
 50
0.0
  9
$ANGDIR
 70
     0
  9
$PDMODE
 70
     0
  9
$PDSIZE
 40
0.0
  9
$PLINEWID
 40
0.01
  9
$COORDS
 70
     1
  9
$SPLFRAME
 70
     0
  9
$SPLINETYPE
 70
     6
  9
$SPLINESEGS
 70
     8
  9
$ATTDIA
 70
     0
  9
$ATTREQ
 70
     1
  9
$HANDLING
 70
-16383
  9
$HANDSEED
  5
37E4
  9
$SURFTAB1
 70
     6
  9
$SURFTAB2
 70
     6
  9
$SURFTYPE
 70
     6
  9
$SURFU
 70
     6
  9
$SURFV
 70
     6
  9
$UCSNAME
  2

  9
$UCSORG
 10
0.2661750000000005
 20
0.2823500000000001
 30
0.0
  9
$UCSXDIR
 10
1.0
 20
0.0
 30
0.0
  9
$UCSYDIR
 10
0.0
 20
1.0
 30
0.0
  9
$PUCSNAME
  2

  9
$PUCSORG
 10
0.0
 20
0.0
 30
0.0
  9
$PUCSXDIR
 10
1.0
 20
0.0
 30
0.0
  9
$PUCSYDIR
 10
0.0
 20
1.0
 30
0.0
  9
$USERI1
 70
     0
  9
$USERI2
 70
     0
  9
$USERI3
 70
     0
  9
$USERI4
 70
     0
  9
$USERI5
 70
     0
  9
$USERR1
 40
0.0
  9
$USERR2
 40
0.0
  9
$USERR3
 40
0.0
  9
$USERR4
 40
0.0
  9
$USERR5
 40
0.0
  9
$WORLDVIEW
 70
     1
  9
$SHADEDGE
 70
     3
  9
$SHADEDIF
 70
    70
  9
$TILEMODE
 70
     1
  9
$MAXACTVP
 70
    16
  9
$PINSBASE
 10
0.0
 20
0.0
 30
0.0
  9
$PLIMCHECK
 70
     0
  9
$PEXTMIN
 10
1.000000000000000E+20
 20
1.000000000000000E+20
 30
1.000000000000000E+20
  9
$PEXTMAX
 10
-1.000000000000000E+20
 20
-1.000000000000000E+20
 30
-1.000000000000000E+20
  9
$PLIMMIN
 10
0.0
 20
0.0
  9
$PLIMMAX
 10
12.0
 20
9.0
  9
$UNITMODE
 70
     0
  9
$VISRETAIN
 70
     0
  9
$PLINEGEN
 70
     0
  9
$PSLTSCALE
 70
     1
  9
$TREEDEPTH
 70
  3020
  9
$PICKSTYLE
 70
     1
  9
$CMLSTYLE
  2
STANDARD
  9
$CMLJUST
 70
     0
  9
$CMLSCALE
 40
1.0
  9
$SAVEIMAGES
 70
     1
  0
ENDSEC
  0
SECTION
  2
CLASSES
  0
CLASS
  1
LWPOLYLINE
  2
AcDbPolyline
  3
AutoCAD 2000
 90
    32768
280
     0
281
     1
  0
CLASS
  1
DICTIONARYVAR
  2
AcDbDictionaryVar
  3
AutoCAD 2000
 90
    32768
280
     0
281
     0
  0
CLASS
  1
HATCH
  2
AcDbHatch
  3
AutoCAD 2000
 90
    32768
280
     0
281
     1
  0
CLASS
  1
ACDBDICTIONARYWDFLT
  2
AcDbDictionaryWithDefault
  3
AutoCAD 2000
 90
    32768
280
     0
281
     0
  0
CLASS
  1
ACDBPLACEHOLDER
  2
AcDbPlaceHolder
  3
AutoCAD 2000
 90
    32768
280
     0
281
     0
  0
CLASS
  1
LAYOUT
  2
AcDbLayout
  3
AutoCAD 2000
 90
    32768
280
     0
281
     0
  0
CLASS
  1
LONG_TRANSACTION
  2
AcDbLongTransaction
  3
AutoCAD 2000
 90
    32768
280
     0
281
     0
  0
CLASS
  1
LWPOLYLINE
  2
AcDbPolyline
  3
AutoCAD 2000
 90
    32768
280
     0
281
     1
  0
CLASS
  1
HATCH
  2
AcDbHatch
  3
AutoCAD 2000
 90
    32768
280
     0
281
     1
  0
CLASS
  1
XRECORD
  2
AcDbXrecord
  3
AutoCAD 2000
 90
    32768
280
     0
281
     0
  0
ENDSEC
  0
SECTION
  2
TABLES
  0
TABLE
  2
VPORT
  5
8
330
0
100
AcDbSymbolTable
 70
     2
  0
VPORT
  5
3735
330
8
100
AcDbSymbolTableRecord
100
AcDbViewportTableRecord
  2
*ACTIVE
 70
     0
 10
0.0
 20
0.0
 11
1.0
 21
1.0
 12
6.231054795837852
 22
4.532379067621202
 13
0.0
 23
0.0
 14
0.005
 24
0.005
 15
0.25
 25
0.25
 16
0.0
 26
0.0
 36
1.0
 17
0.0
 27
0.0
 37
0.0
 40
8.617919245694608
 41
1.818713450292397
 42
50.0
 43
0.0
 44
0.0
 50
0.0
 51
0.0
 71
     0
 72
 20000
 73
     1
 74
     2
 75
     0
 76
     0
 77
     0
 78
     0
  0
ENDTAB
  0
TABLE
  2
LTYPE
  5
5
330
0
100
AcDbSymbolTable
 70
     3
  0
LTYPE
  5
14
330
5
100
AcDbSymbolTableRecord
100
AcDbLinetypeTableRecord
  2
BYBLOCK
 70
     0
  3

 72
    65
 73
     0
 40
0.0
  0
LTYPE
  5
15
330
5
100
AcDbSymbolTableRecord
100
AcDbLinetypeTableRecord
  2
BYLAYER
 70
     0
  3

 72
    65
 73
     0
 40
0.0
  0
LTYPE
  5
16
330
5
100
AcDbSymbolTableRecord
100
AcDbLinetypeTableRecord
  2
CONTINUOUS
 70
     0
  3
Solid line
 72
    65
 73
     0
 40
0.0
  0
LTYPE
  5
34AB
330
5
100
AcDbSymbolTableRecord
100
AcDbLinetypeTableRecord
  2
CENTER
 70
     0
  3
Center ____ _ ____ _ ____ _ ____ _ ____ _ ____
 72
    65
 73
     4
 40
2.0
 49
1.25
 74
     0
 49
-0.25
 74
     0
 49
0.25
 74
     0
 49
-0.25
 74
     0
  0
LTYPE
  5
34AC
330
5
100
AcDbSymbolTableRecord
100
AcDbLinetypeTableRecord
  2
HIDDEN
 70
     0
  3
Hidden __ __ __ __ __ __ __ __ __ __ __ __ __ _
 72
    65
 73
     2
 40
0.375
 49
0.25
 74
     0
 49
-0.125
 74
     0
  0
ENDTAB
  0
TABLE
  2
LAYER
  5
2
330
0
100
AcDbSymbolTable
 70
     8
  0
LAYER
  5
F
330
2
100
AcDbSymbolTableRecord
100
AcDbLayerTableRecord
  2
0
 70
     0
 62
     7
  6
CONTINUOUS
  0
LAYER
  5
28
330
2
100
AcDbSymbolTableRecord
100
AcDbLayerTableRecord
  2
BORDER
 70
     0
 62
     7
  6
CONTINUOUS
  0
LAYER
  5
2A
330
2
100
AcDbSymbolTableRecord
100
AcDbLayerTableRecord
  2
D1
 70
     0
 62
     7
  6
CONTINUOUS
  0
LAYER
  5
3327
330
2
100
AcDbSymbolTableRecord
100
AcDbLayerTableRecord
  2
S1
 70
     0
 62
     7
  6
CONTINUOUS
  0
LAYER
  5
348B
330
2
100
AcDbSymbolTableRecord
100
AcDbLayerTableRecord
  2
S2
 70
     0
 62
     7
  6
CONTINUOUS
  0
LAYER
  5
348C
330
2
100
AcDbSymbolTableRecord
100
AcDbLayerTableRecord
  2
S3
 70
     0
 62
     7
  6
CONTINUOUS
  0
LAYER
  5
3680
330
2
100
AcDbSymbolTableRecord
100
AcDbLayerTableRecord
  2
SHEET1
 70
     0
 62
     7
  6
CONTINUOUS
  0
LAYER
  5
3681
330
2
100
AcDbSymbolTableRecord
100
AcDbLayerTableRecord
  2
DIM1
 70
     0
 62
     7
  6
CONTINUOUS
  0
ENDTAB
  0
TABLE
  2
STYLE
  5
3
330
0
100
AcDbSymbolTable
 70
     2
  0
STYLE
  5
10
330
3
100
AcDbSymbolTableRecord
100
AcDbTextStyleTableRecord
  2
STANDARD
 70
     0
 40
0.0
 41
1.0
 50
0.0
 71
     0
 42
0.08
  3
txt
  4

  0
STYLE
  5
34AA
330
3
100
AcDbSymbolTableRecord
100
AcDbTextStyleTableRecord
  2

 70
     1
 40
0.0
 41
1.0
 50
0.0
 71
     0
 42
0.08
  3
ltypeshp.shx
  4

  0
ENDTAB
  0
TABLE
  2
VIEW
  5
6
330
0
100
AcDbSymbolTable
 70
     0
  0
ENDTAB
  0
TABLE
  2
UCS
  5
7
330
0
100
AcDbSymbolTable
 70
     0
  0
ENDTAB
  0
TABLE
  2
APPID
  5
9
330
0
100
AcDbSymbolTable
 70
     6
  0
APPID
  5
11
330
9
100
AcDbSymbolTableRecord
100
AcDbRegAppTableRecord
  2
ACAD
 70
     0
  0
APPID
  5
3317
330
9
100
AcDbSymbolTableRecord
100
AcDbRegAppTableRecord
  2
CONTENTTABDATA
 70
     0
  0
APPID
  5
3318
330
9
100
AcDbSymbolTableRecord
100
AcDbRegAppTableRecord
  2
CONTENTCURRENTTAB
 70
     0
  0
APPID
  5
3328
330
9
100
AcDbSymbolTableRecord
100
AcDbRegAppTableRecord
  2
CONTENTBLOCKDESCRIPTION
 70
     0
  0
APPID
  5
3342
330
9
100
AcDbSymbolTableRecord
100
AcDbRegAppTableRecord
  2
CONTENTLONGBLOCKNAME
 70
     0
  0
APPID
  5
3343
330
9
100
AcDbSymbolTableRecord
100
AcDbRegAppTableRecord
  2
CONTENTBLOCKICON
 70
     0
  0
ENDTAB
  0
TABLE
  2
DIMSTYLE
  5
A
330
0
100
AcDbSymbolTable
 70
     1
  0
DIMSTYLE
105
1D
330
A
100
AcDbSymbolTableRecord
100
AcDbDimStyleTableRecord
  2
STANDARD
 70
     0
  3

  4

  5

  6

  7

 40
1.0
 41
0.18
 42
0.04
 43
0.4
 44
0.04
 45
0.0
 46
0.0
 47
0.0
 48
0.0
140
0.08
141
0.07
142
0.0
143
25.4
144
1.0
145
0.0
146
1.0
147
0.05
 71
     0
 72
     0
 73
     1
 74
     1
 75
     0
 76
     0
 77
     0
 78
     0
170
     0
171
     2
172
     0
173
     0
174
     0
175
     0
176
     0
177
     0
178
   256
270
     2
271
     3
272
     3
273
     2
274
     2
340
10
275
     0
280
     0
281
     0
282
     0
283
     1
284
     0
285
     0
286
     0
287
     3
288
     1
  0
ENDTAB
  0
TABLE
  2
BLOCK_RECORD
  5
1
330
0
100
AcDbSymbolTable
 70
     2
  0
BLOCK_RECORD
  5
1A
102
{ACAD_XDICTIONARY
360
3738
102
}
330
1
100
AcDbSymbolTableRecord
100
AcDbBlockTableRecord
  2
*MODEL_SPACE
  0
BLOCK_RECORD
  5
17
102
{ACAD_XDICTIONARY
360
3736
102
}
330
1
100
AcDbSymbolTableRecord
100
AcDbBlockTableRecord
  2
*PAPER_SPACE
  0
BLOCK_RECORD
  5
343D
330
1
100
AcDbSymbolTableRecord
100
AcDbBlockTableRecord
  2
COPYRIGHT
1001
CONTENTBLOCKDESCRIPTION
1071
        0
1000
copy right symbol for upper left hand corner of screen
1001
CONTENTBLOCKICON
1071
        0
1004
2800000020000000200000000100040000000000000200000000000000000000000000000000000000000000000080000080000000808000800000008000800080800000C0C0C000808080000000FF0000FF000000FFFF00FF000000FF00FF00FFFF0000FFFFFF00FFFFFFFFFFFFFFFFFFFFFFFFFFFFFFFFFFFFFFFFFFFFFF
1004
FFFFFFFFFFFFFFFFFFFFFFFFFFFFFFFFFFFFFFFFFFFFFFFFFFFFFFFFFFFFFFFFFFFFFFFFFFFFFFFFFFFFFFFFFFFFFFFFFFFFFFFFFFFFFFFFFFFFFFFFFFFFFFFFFFFFFFFFFFFFFFFFFFFFFFFFFFFFFFFFFFFFFFFFFFFFFFFFFFFFFFFFFFFFFFFFFFFFFFFFFFFFFFFFFFFFFFFFFFFFFFFFFFFFFFFFFFFFFFFFFFFFFFFFFFFFFF
1004
FFFFFFFFFFFFFFFFFFFFFFFFFFFFFFFFFFFFFFFFFFFFFFFFFFFFFFFFFFFFFFFFFFFFFFFFFFFFFFFFFFFFFFFFFFFFFFFFFFFFFFFFFFFFFFFFFFFFFFFFFFFFFFFFFFFFFFFFFFFFFFFFFFFFFFFFFFFFFFFFFFFFFFFFFFFFFFFFFFFFFFFFFFFFFFFFFFFFFFFFFFFFFFFFFFFF999999999999999999999999FFFFFFFF9999999999
1004
99999999999999FFFFFFFFFFFFFFFFFFFFFFFFFFFFFFFFFFFFFFFFFFFFFFFFFFFFFFFFFFFFFFFFFFFFFFFFFFFFFFFFFFFFFFFFFFFFFFFFFFFFFFFFFFFFFFFFFFFFFFFFFFFFFFFFFFFFFFFFFFFFFFFFFFFFFFFFFFFFFFFFFFFFFFFFFFFFFFFFFFFFFFFFFFFFFFFFFFFFFFFFFFFFFFFFFFFFFFFFFFFFFFFFFFFFFFFFFFFFFFFF
1004
FFFFFFFFFFFFFFFFFFFFFFFFFFFFFFFFFFFFFFFFFFFFFFFFFFFFFFFFFFFFFFFFFFFFFFFFFFFFFFFFFFFFFFFFFFFFFFFFFFFFFFFFFFFFFFFFFFFFFFFFFFFFFFFFFFFFFFFFFFFFFFFFFFFFFFFFFFFFFFFFFFFFFFFFFFFFFFFFFFFFFFFFFFFFFFFFFFFFFFFFFFFFFFFFFFFFFFFF
  0
BLOCK_RECORD
  5
34CC
330
1
100
AcDbSymbolTableRecord
100
AcDbBlockTableRecord
  2
A$C26FD1AD4
  0
ENDTAB
  0
ENDSEC
  0
SECTION
  2
BLOCKS
  0
BLOCK
  5
1B
330
1A
100
AcDbEntity
  8
0
100
AcDbBlockBegin
  2
*MODEL_SPACE
 70
     0
 10
0.0
 20
0.0
 30
0.0
  3
*MODEL_SPACE
  1

  0
ENDBLK
  5
1C
330
1A
100
AcDbEntity
  8
0
100
AcDbBlockEnd
  0
BLOCK
  5
18
330
17
100
AcDbEntity
 67
     1
  8
0
100
AcDbBlockBegin
  2
*PAPER_SPACE
 70
     0
 10
0.0
 20
0.0
 30
0.0
  3
*PAPER_SPACE
  1

  0
ENDBLK
  5
19
330
17
100
AcDbEntity
 67
     1
  8
0
100
AcDbBlockEnd
  0
BLOCK
  5
343F
330
343D
100
AcDbEntity
  8
0
100
AcDbBlockBegin
  2
COPYRIGHT
 70
     0
 10
0.0
 20
0.0
 30
0.0
  3
COPYRIGHT
  1

  0
MTEXT
  5
343E
330
343D
100
AcDbEntity
  8
BORDER
100
AcDbMText
 10
0.0258733304183885
 20
0.323044704881891
 30
0.0
 40
0.25
 41
9.340999999999999
 71
     1
 72
     1
  1
\FVERDANA.TTF;COPYRIGHT \FSYMBOL.TTF;\H0.3;Ó\FVERDANA.TTF;\H0.25; 1998 by THORLABS INC.
1001
ACAD
1000
MTEXTBEGIN
1070
    73
1070
     1
1070
    44
1040
1.0
1070
    74
1070
     0
1000
MTEXTEND
  0
ENDBLK
  5
3440
330
343D
100
AcDbEntity
  8
0
100
AcDbBlockEnd
  0
BLOCK
  5
34FB
330
34CC
100
AcDbEntity
  8
0
100
AcDbBlockBegin
  2
A$C26FD1AD4
 70
     0
 10
0.0
 20
0.0
 30
0.0
  3
A$C26FD1AD4
  1

  0
CIRCLE
  5
34CD
330
34CC
100
AcDbEntity
  8
S1
100
AcDbCircle
 10
0.2288628209178301
 20
0.2380245438808011
 30
0.0
 40
0.236
  0
LINE
  5
34CE
330
34CC
100
AcDbEntity
  8
S1
100
AcDbLine
 10
0.1266718232712671
 20
0.1790245438808
 30
0.0
 11
0.2288628209178301
 21
0.1200245438808025
 31
0.0
  0
LINE
  5
34CF
330
34CC
100
AcDbEntity
  8
S1
100
AcDbLine
 10
0.331053818564393
 20
0.1790245438808
 30
0.0
 11
0.2288628209178301
 21
0.1200245438808025
 31
0.0
  0
CIRCLE
  5
34D0
330
34CC
100
AcDbEntity
  8
S1
100
AcDbCircle
 10
0.2288628209178301
 20
0.2380245438808011
 30
0.0
 40
0.15
  0
LINE
  5
34D1
330
34CC
100
AcDbEntity
  8
S1
100
AcDbLine
 10
0.2288628209178301
 20
0.3560245438807996
 30
0.0
 11
0.1266718232712671
 21
0.2970245438808021
 31
0.0
  0
LINE
  5
34D2
330
34CC
100
AcDbEntity
  8
S1
100
AcDbLine
 10
0.1266718232712671
 20
0.2970245438808021
 30
0.0
 11
0.1266718232712671
 21
0.1790245438808
 31
0.0
  0
LINE
  5
34D3
330
34CC
100
AcDbEntity
  8
S1
100
AcDbLine
 10
0.2288628209178301
 20
0.3560245438807996
 30
0.0
 11
0.331053818564393
 21
0.2970245438808021
 31
0.0
  0
LINE
  5
34D4
330
34CC
100
AcDbEntity
  8
S1
100
AcDbLine
 10
0.331053818564393
 20
0.2970245438808021
 30
0.0
 11
0.331053818564393
 21
0.1790245438808
 31
0.0
  0
LINE
  5
34D5
330
34CC
100
AcDbEntity
  8
S1
100
AcDbLine
 10
2.517893143190157
 20
0.4740245438808009
 30
0.0
 11
1.397893143190156
 21
0.4740245438808018
 31
0.0
  0
LINE
  5
34D6
330
34CC
100
AcDbEntity
  8
S1
100
AcDbLine
 10
2.517893143190156
 20
0.0020245438808004
 30
0.0
 11
1.397893143190152
 21
0.0020245438808004
 31
0.0
  0
LINE
  5
34D7
330
34CC
100
AcDbEntity
  8
S1
100
AcDbLine
 10
1.717893143190156
 20
0.4740245438808018
 30
0.0
 11
1.717893143190153
 21
0.0020245438808004
 31
0.0
  0
LINE
  5
34D8
330
34CC
100
AcDbEntity
  8
S1
100
AcDbLine
 10
1.677893143190155
 20
0.4340245438808017
 30
0.0
 11
1.677893143190154
 21
0.0420245438808005
 31
0.0
  0
LINE
  5
34D9
330
34CC
100
AcDbEntity
  8
S1
100
AcDbLine
 10
1.637893143190156
 20
0.4740245438808018
 30
0.0
 11
1.637893143190153
 21
0.0020245438808004
 31
0.0
  0
LINE
  5
34DA
330
34CC
100
AcDbEntity
  8
S1
100
AcDbLine
 10
1.597893143190156
 20
0.4340245438808017
 30
0.0
 11
1.597893143190153
 21
0.0420245438808005
 31
0.0
  0
LINE
  5
34DB
330
34CC
100
AcDbEntity
  8
S1
100
AcDbLine
 10
1.557893143190156
 20
0.4740245438808018
 30
0.0
 11
1.557893143190153
 21
0.0020245438808004
 31
0.0
  0
LINE
  5
34DC
330
34CC
100
AcDbEntity
  8
S1
100
AcDbLine
 10
1.517893143190156
 20
0.4340245438808017
 30
0.0
 11
1.517893143190154
 21
0.0420245438808005
 31
0.0
  0
LINE
  5
34DD
330
34CC
100
AcDbEntity
  8
S1
100
AcDbLine
 10
1.477893143190156
 20
0.4740245438808018
 30
0.0
 11
1.477893143190152
 21
0.0020245438808004
 31
0.0
  0
LINE
  5
34DE
330
34CC
100
AcDbEntity
  8
S1
100
AcDbLine
 10
1.437893143190156
 20
0.4340245438808017
 30
0.0
 11
1.437893143190153
 21
0.0420245438808005
 31
0.0
  0
LINE
  5
34DF
330
34CC
100
AcDbEntity
  8
S1
100
AcDbLine
 10
1.357893143190153
 20
0.0420245438807996
 30
0.0
 11
1.357893143190157
 21
0.4340245438808026
 31
0.0
  0
LINE
  5
34E0
330
34CC
100
AcDbEntity
  8
S1
100
AcDbLine
 10
1.397893143190156
 20
0.4740245438808018
 30
0.0
 11
1.397893143190152
 21
0.0020245438808004
 31
0.0
  0
LINE
  5
34E1
330
34CC
100
AcDbEntity
  8
S1
100
AcDbLine
 10
1.357893143190153
 20
0.0420245438807996
 30
0.0
 11
1.397893143190152
 21
0.0020245438808004
 31
0.0
  0
LINE
  5
34E2
330
34CC
100
AcDbEntity
  8
S1
100
AcDbLine
 10
1.357893143190157
 20
0.4340245438808026
 30
0.0
 11
1.397893143190156
 21
0.4740245438808018
 31
0.0
  0
LINE
  5
34E3
330
34CC
100
AcDbEntity
  8
S1
100
AcDbLine
 10
2.157893143190157
 20
0.4340245438808008
 30
0.0
 11
2.157893143190155
 21
0.0420245438808005
 31
0.0
  0
LINE
  5
34E4
330
34CC
100
AcDbEntity
  8
S1
100
AcDbLine
 10
2.117893143190157
 20
0.4740245438808018
 30
0.0
 11
2.117893143190153
 21
0.0020245438808004
 31
0.0
  0
LINE
  5
34E5
330
34CC
100
AcDbEntity
  8
S1
100
AcDbLine
 10
2.077893143190157
 20
0.4340245438808017
 30
0.0
 11
2.077893143190154
 21
0.0420245438808005
 31
0.0
  0
LINE
  5
34E6
330
34CC
100
AcDbEntity
  8
S1
100
AcDbLine
 10
2.037893143190157
 20
0.4740245438808018
 30
0.0
 11
2.037893143190153
 21
0.0020245438808004
 31
0.0
  0
LINE
  5
34E7
330
34CC
100
AcDbEntity
  8
S1
100
AcDbLine
 10
1.997893143190156
 20
0.4340245438808017
 30
0.0
 11
1.997893143190154
 21
0.0420245438808005
 31
0.0
  0
LINE
  5
34E8
330
34CC
100
AcDbEntity
  8
S1
100
AcDbLine
 10
1.957893143190156
 20
0.4740245438808018
 30
0.0
 11
1.957893143190153
 21
0.0020245438808004
 31
0.0
  0
LINE
  5
34E9
330
34CC
100
AcDbEntity
  8
S1
100
AcDbLine
 10
1.917893143190156
 20
0.4340245438808017
 30
0.0
 11
1.917893143190153
 21
0.0420245438808005
 31
0.0
  0
LINE
  5
34EA
330
34CC
100
AcDbEntity
  8
S1
100
AcDbLine
 10
1.877893143190156
 20
0.4740245438808018
 30
0.0
 11
1.877893143190153
 21
0.0020245438808004
 31
0.0
  0
LINE
  5
34EB
330
34CC
100
AcDbEntity
  8
S1
100
AcDbLine
 10
1.837893143190156
 20
0.4340245438808017
 30
0.0
 11
1.837893143190155
 21
0.0420245438808005
 31
0.0
  0
LINE
  5
34EC
330
34CC
100
AcDbEntity
  8
S1
100
AcDbLine
 10
1.797893143190156
 20
0.4740245438808018
 30
0.0
 11
1.797893143190153
 21
0.0020245438808004
 31
0.0
  0
LINE
  5
34ED
330
34CC
100
AcDbEntity
  8
S1
100
AcDbLine
 10
1.757893143190156
 20
0.4340245438808017
 30
0.0
 11
1.757893143190154
 21
0.0420245438808005
 31
0.0
  0
ARC
  5
34EE
330
34CC
100
AcDbEntity
  8
S1
100
AcDbCircle
 10
2.532893143190159
 20
0.2380245438808011
 30
0.0
 40
0.125
100
AcDbArc
 50
281.5369590328156
 51
78.46304096718522
  0
LINE
  5
34EF
330
34CC
100
AcDbEntity
  8
S1
100
AcDbLine
 10
2.477893143190156
 20
0.4340245438808008
 30
0.0
 11
2.477893143190154
 21
0.0420245438808005
 31
0.0
  0
LINE
  5
34F0
330
34CC
100
AcDbEntity
  8
S1
100
AcDbLine
 10
2.437893143190157
 20
0.4740245438808018
 30
0.0
 11
2.437893143190153
 21
0.0020245438808004
 31
0.0
  0
LINE
  5
34F1
330
34CC
100
AcDbEntity
  8
S1
100
AcDbLine
 10
2.397893143190157
 20
0.4340245438808008
 30
0.0
 11
2.397893143190155
 21
0.0420245438808005
 31
0.0
  0
LINE
  5
34F2
330
34CC
100
AcDbEntity
  8
S1
100
AcDbLine
 10
2.357893143190157
 20
0.4740245438808018
 30
0.0
 11
2.357893143190153
 21
0.0020245438808004
 31
0.0
  0
LINE
  5
34F3
330
34CC
100
AcDbEntity
  8
S1
100
AcDbLine
 10
2.317893143190157
 20
0.4340245438808008
 30
0.0
 11
2.317893143190154
 21
0.0420245438808005
 31
0.0
  0
LINE
  5
34F4
330
34CC
100
AcDbEntity
  8
S1
100
AcDbLine
 10
2.277893143190157
 20
0.4740245438808018
 30
0.0
 11
2.277893143190153
 21
0.0020245438808004
 31
0.0
  0
LINE
  5
34F5
330
34CC
100
AcDbEntity
  8
S1
100
AcDbLine
 10
2.237893143190156
 20
0.4340245438808008
 30
0.0
 11
2.237893143190153
 21
0.0420245438808005
 31
0.0
  0
LINE
  5
34F6
330
34CC
100
AcDbEntity
  8
S1
100
AcDbLine
 10
2.197893143190157
 20
0.4740245438808018
 30
0.0
 11
2.197893143190153
 21
0.0020245438808004
 31
0.0
  0
LINE
  5
34F7
330
34CC
100
AcDbEntity
  8
S1
100
AcDbLine
 10
2.557893143190161
 20
0.0420245438807987
 30
0.0
 11
2.557893143190158
 21
0.4340245438808017
 31
0.0
  0
LINE
  5
34F8
330
34CC
100
AcDbEntity
  8
S1
100
AcDbLine
 10
2.517893143190156
 20
0.0020245438808004
 30
0.0
 11
2.517893143190157
 21
0.4740245438808009
 31
0.0
  0
LINE
  5
34F9
330
34CC
100
AcDbEntity
  8
S1
100
AcDbLine
 10
2.557893143190161
 20
0.0420245438807987
 30
0.0
 11
2.517893143190162
 21
0.0020245438807995
 31
0.0
  0
LINE
  5
34FA
330
34CC
100
AcDbEntity
  8
S1
100
AcDbLine
 10
2.557893143190158
 20
0.4340245438808017
 30
0.0
 11
2.517893143190159
 21
0.4740245438808009
 31
0.0
  0
ENDBLK
  5
34FC
330
34CC
100
AcDbEntity
  8
0
100
AcDbBlockEnd
  0
ENDSEC
  0
SECTION
  2
ENTITIES
  0
LINE
  5
132
330
1A
100
AcDbEntity
  8
BORDER
100
AcDbLine
 39
0.0075
 10
9.726547376952984
 20
0.6832137948435509
 30
0.0
 11
9.726547376952984
 21
0.4891137948435511
 31
0.0
  0
LINE
  5
133
330
1A
100
AcDbEntity
  8
BORDER
100
AcDbLine
 10
9.945831594939301
 20
0.2823500000000001
 30
0.11646
 11
9.945831594939301
 21
0.6832137948435509
 31
0.11646
  0
TRACE
  5
137
330
1A
100
AcDbEntity
  8
BORDER
100
AcDbTrace
 10
11.2551888578914
 20
1.478867550649399
 30
0.11646
 11
11.2551888578914
 21
1.491807550649399
 31
0.11646
 12
8.993923857891404
 22
1.478867550649399
 32
0.11646
 13
8.993923857891404
 23
1.491807550649399
 33
0.11646
 39
0.0075
  0
LINE
  5
138
330
1A
100
AcDbEntity
  8
BORDER
100
AcDbLine
 39
0.0075
 10
8.990688857891404
 20
1.291237550649399
 30
0.11646
 11
11.2551888578914
 21
1.291237550649399
 31
0.11646
  0
TEXT
  5
13A
330
1A
100
AcDbEntity
  8
BORDER
100
AcDbText
 10
9.039601244079856
 20
1.101033685005912
 30
0.111268068365412
 40
0.043270915475438
  1
SURF. FINISH: 32 MICROINCHES UNLESS OTHERWISE NOTED
100
AcDbText
  0
TEXT
  5
13B
330
1A
100
AcDbEntity
  8
D1
100
AcDbText
 10
9.21842567524736
 20
0.7286278652420393
 30
0.0
 40
0.06
  1
RESIN COATED PIEZOELECTRIC CERAMIC
100
AcDbText
  0
TEXT
  5
13C
330
1A
100
AcDbEntity
  8
D1
100
AcDbText
 10
9.263182651037814
 20
1.346903421174998
 30
0.0
 40
0.06
  1
LOW VOLTAGE PIEZO ACTUATOR
100
AcDbText
  0
TRACE
  5
13D
330
1A
100
AcDbEntity
  8
BORDER
100
AcDbTrace
 10
11.2551888578914
 20
1.727962550649399
 30
0.11646
 11
11.2551888578914
 21
1.760312550649399
 31
0.11646
 12
9.006863857891405
 22
1.727962550649399
 32
0.11646
 13
8.974513857891404
 23
1.760312550649399
 33
0.11646
  0
LINE
  5
13E
330
1A
100
AcDbEntity
  8
BORDER
100
AcDbLine
 39
0.0075
 10
8.990688857891404
 20
1.071413794843551
 30
0.11646
 11
11.2551888578914
 21
1.071413794843551
 31
0.11646
  0
LINE
  5
13F
330
1A
100
AcDbEntity
  8
BORDER
100
AcDbLine
 39
0.0075
 10
8.990688857891404
 20
0.8773137948435504
 30
0.11646
 11
11.26920067485122
 21
0.8773137948435504
 31
0.11646
  0
LINE
  5
140
330
1A
100
AcDbEntity
  8
BORDER
100
AcDbLine
 39
0.0075
 10
8.990688857891404
 20
0.6832137948435509
 30
0.11646
 11
11.26920067485122
 21
0.6832137948435509
 31
0.11646
  0
LINE
  5
141
330
1A
100
AcDbEntity
  8
BORDER
100
AcDbLine
 39
0.0075
 10
8.990688857891404
 20
0.4891137948435511
 30
0.11646
 11
11.266175
 21
0.4891137948435511
 31
0.11646
  0
TEXT
  5
142
330
1A
100
AcDbEntity
  8
BORDER
100
AcDbText
 10
9.048918857891406
 20
1.207127550649399
 30
0.11646
 40
0.04529
  1
TOL: X.XXX=+/-0.005 X.XX=+/-0.010 ANGULAR +/-30'
100
AcDbText
  0
TRACE
  5
143
330
1A
100
AcDbEntity
  8
BORDER
100
AcDbTrace
 10
9.006863857891405
 20
1.728312249965692
 30
0.11646
 11
8.974513857891404
 21
1.760662249965692
 31
0.11646
 12
9.006863857891405
 22
0.2950137948435514
 32
0.11646
 13
8.974513857891404
 23
0.2950137948435514
 33
0.11646
  0
LINE
  5
144
330
1A
100
AcDbEntity
  8
BORDER
100
AcDbLine
 39
0.0075
 10
9.702916360972857
 20
0.8773137948435504
 30
0.0
 11
9.702916360972857
 21
1.071413794843551
 31
0.0
  0
LINE
  5
145
330
1A
100
AcDbEntity
  8
BORDER
100
AcDbLine
 10
9.537916360972856
 20
0.4891137948435511
 30
0.0
 11
9.537916360972856
 21
0.6832137948435509
 31
0.0
  0
TEXT
  5
146
330
1A
100
AcDbEntity
  8
D1
100
AcDbText
 10
9.143274945403756
 20
0.3235396653691507
 30
0.0
 40
0.06
  1
8627-E01A
100
AcDbText
  0
TEXT
  5
147
330
1A
100
AcDbEntity
  8
D1
100
AcDbText
 10
9.03713088090428
 20
0.5335396653691502
 30
0.0
 40
0.06
  1
10/15/03
100
AcDbText
  0
TEXT
  5
148
330
1A
100
AcDbEntity
  8
D1
100
AcDbText
 10
9.218305982991685
 20
0.9066535306636914
 30
0.0
 40
0.06
  1
TC
100
AcDbText
  0
TEXT
  5
149
330
1A
100
AcDbEntity
  8
BORDER
100
AcDbText
 10
9.052153857891406
 20
0.4244137948435509
 30
0.11646
 40
0.04529
  1
DWG NO.
100
AcDbText
  0
TEXT
  5
14A
330
1A
100
AcDbEntity
  8
BORDER
100
AcDbText
 10
9.048918857891406
 20
0.8064367527075866
 30
0.11646
 40
0.04529
  1
MATERIAL
100
AcDbText
  0
TEXT
  5
14B
330
1A
100
AcDbEntity
  8
BORDER
100
AcDbText
 10
9.052153857891402
 20
0.6185137948435511
 30
0.11646
 40
0.04
  1
DATE
100
AcDbText
  0
TEXT
  5
14C
330
1A
100
AcDbEntity
  8
BORDER
100
AcDbText
 10
9.048918857891406
 20
1.417402550649399
 30
0.11646
 40
0.04529
  1
TITLE
100
AcDbText
  0
TEXT
  5
14D
330
1A
100
AcDbEntity
  8
BORDER
100
AcDbText
 10
9.044610102787034
 20
1.007492660138092
 30
0.11646
 40
0.04
  1
DRAWN
100
AcDbText
  0
LINE
  5
14E
330
1A
100
AcDbEntity
  8
BORDER
100
AcDbLine
 39
0.0075
 10
10.26191636097285
 20
0.8773137948435504
 30
0.0
 11
10.26191636097285
 21
1.071413794843551
 31
0.0
  0
TEXT
  5
14F
330
1A
100
AcDbEntity
  8
D1
100
AcDbText
 10
10.14213088090427
 20
0.3235396653691507
 30
0.0
 40
0.06
  1
AE0505D18
100
AcDbText
  0
TEXT
  5
150
330
1A
100
AcDbEntity
  8
D1
100
AcDbText
 10
9.614342921510965
 20
0.5335396653691502
 30
0.0
 40
0.06
  1
A
100
AcDbText
  0
TEXT
  5
151
330
1A
100
AcDbEntity
  8
D1
100
AcDbText
 10
9.81287684864621
 20
0.54144371811595
 30
0.0
 40
0.06
  1
A
 72
     1
 11
9.832876848646209
 21
0.54144371811595
 31
0.0
100
AcDbText
  0
TEXT
  5
152
330
1A
100
AcDbEntity
  8
BORDER
100
AcDbText
 10
9.765809399965858
 20
0.6164437181159502
 30
0.0
 40
0.04
  1
SIZE
 72
     1
 11
9.832476066632525
 21
0.6164437181159502
 31
0.0
100
AcDbText
  0
TEXT
  5
153
330
1A
100
AcDbEntity
  8
D1
100
AcDbText
 10
9.950011044244124
 20
0.9066535306636914
 30
0.0
 40
0.06
  1
AC
100
AcDbText
  0
TEXT
  5
154
330
1A
100
AcDbEntity
  8
D1
100
AcDbText
 10
10.09879111396452
 20
0.5335396653691502
 30
0.0
 40
0.06
  1
1
100
AcDbText
  0
TEXT
  5
155
330
1A
100
AcDbEntity
  8
D1
100
AcDbText
 10
10.34379111396452
 20
0.5335396653691502
 30
0.0
 40
0.06
  1
1
100
AcDbText
  0
TEXT
  5
157
330
1A
100
AcDbEntity
  8
BORDER
100
AcDbText
 10
10.32658018362911
 20
1.007492660138092
 30
0.11646
 40
0.04
  1
APPROVED
100
AcDbText
  0
TEXT
  5
158
330
1A
100
AcDbEntity
  8
BORDER
100
AcDbText
 10
9.987158745476936
 20
0.4244137948435509
 30
0.11646
 40
0.04529
  1
PART NO.
100
AcDbText
  0
TEXT
  5
159
330
1A
100
AcDbEntity
  8
BORDER
100
AcDbText
 10
9.558578745476937
 20
0.615278794843551
 30
0.11646
 40
0.04
  1
REV
100
AcDbText
  0
TEXT
  5
15A
330
1A
100
AcDbEntity
  8
BORDER
100
AcDbText
 10
9.972116917519945
 20
0.6154438782988123
 30
0.11646
 40
0.04
  1
SHEET
100
AcDbText
  0
TEXT
  5
15B
330
1A
100
AcDbEntity
  8
BORDER
100
AcDbText
 10
10.19393955599924
 20
0.5382287948435512
 30
0.11646
 40
0.04529
  1
OF
100
AcDbText
  0
TEXT
  5
15C
330
1A
100
AcDbEntity
  8
BORDER
100
AcDbText
 10
9.717809990372565
 20
1.007492660138092
 30
0.11646
 40
0.04
  1
ENGINEER
100
AcDbText
  0
POLYLINE
  5
15E
330
1A
100
AcDbEntity
  8
BORDER
100
AcDb2dPolyline
 66
     1
 10
0.0
 20
0.0
 30
0.23292
 40
0.00727875
 41
0.00727875
  0
VERTEX
  5
373A
330
15E
100
AcDbEntity
  8
BORDER
100
AcDbVertex
100
AcDb2dVertex
 10
9.633194085913112
 20
1.690948002377
 30
0.23292
  0
VERTEX
  5
373B
330
15E
100
AcDbEntity
  8
BORDER
100
AcDbVertex
100
AcDb2dVertex
 10
9.532751674987329
 20
1.690948002377
 30
0.23292
  0
SEQEND
  5
373C
330
15E
100
AcDbEntity
  8
BORDER
  0
SOLID
  5
162
330
1A
100
AcDbEntity
  8
BORDER
100
AcDbTrace
 10
9.532751674987329
 20
1.512618627376999
 30
0.23292
 11
9.532751674987329
 21
1.694587377376999
 31
0.23292
 12
9.569925144340301
 22
1.512618627376999
 32
0.23292
 13
9.569925144340301
 23
1.690622699047484
 33
0.23292
  0
SOLID
  5
163
330
1A
100
AcDbEntity
  8
BORDER
100
AcDbTrace
 10
9.11687938619818
 20
1.512618627377
 30
0.23292
 11
9.153273136198178
 21
1.512618627377
 31
0.23292
 12
9.11687938619818
 22
1.664562533627
 32
0.23292
 13
9.153273136198178
 23
1.664562533627
 33
0.23292
  0
SOLID
  5
164
330
1A
100
AcDbEntity
  8
BORDER
100
AcDbTrace
 10
9.323413917448176
 20
1.694587377376999
 30
0.23292
 11
9.359807667448174
 21
1.694587377376999
 31
0.23292
 12
9.323413917448176
 22
1.512618627376999
 32
0.23292
 13
9.359807667448174
 23
1.512618627376999
 33
0.23292
  0
SOLID
  5
165
330
1A
100
AcDbEntity
  8
BORDER
100
AcDbTrace
 10
9.21150313619818
 20
1.694587377376999
 30
0.23292
 11
9.247896886198178
 21
1.694587377376999
 31
0.23292
 12
9.21150313619818
 22
1.512618627376999
 32
0.23292
 13
9.247896886198178
 23
1.512618627376999
 33
0.23292
  0
SOLID
  5
166
330
1A
100
AcDbEntity
  8
BORDER
100
AcDbTrace
 10
9.519367474660009
 20
1.556816991116891
 30
0.23292
 11
9.497922427776193
 21
1.5792981941861
 31
0.23292
 12
9.530600594456293
 22
1.610976253056347
 32
0.23292
 13
9.498943620484945
 23
1.614041871656694
 33
0.23292
  0
SOLID
  5
167
330
1A
100
AcDbEntity
  8
BORDER
100
AcDbTrace
 10
9.493837656941183
 20
1.52820455084699
 30
0.23292
 11
9.481072748081766
 21
1.545576389582287
 31
0.23292
 12
9.519367474660009
 22
1.556816991116891
 32
0.23292
 13
9.497922427776193
 23
1.5792981941861
 33
0.23292
  0
SOLID
  5
168
330
1A
100
AcDbEntity
  8
BORDER
100
AcDbTrace
 10
9.362103797512036
 20
1.603312206555481
 30
0.23292
 11
9.391718386065877
 21
1.600757524388525
 31
0.23292
 12
9.375379302725827
 22
1.551196690349589
 32
0.23292
 13
9.401419716799027
 23
1.56090448258402
 33
0.23292
  0
POLYLINE
  5
169
330
1A
100
AcDbEntity
  8
BORDER
100
AcDb2dPolyline
 66
     1
 10
0.0
 20
0.0
 30
0.23292
 40
0.00727875
 41
0.00727875
  0
VERTEX
  5
373D
330
169
100
AcDbEntity
  8
BORDER
100
AcDbVertex
100
AcDb2dVertex
 10
9.36748653289195
 20
1.572772042237243
 30
0.23292
 42
0.7616390336395551
  0
VERTEX
  5
373E
330
169
100
AcDbEntity
  8
BORDER
100
AcDbVertex
100
AcDb2dVertex
 10
9.52570285664297
 20
1.574438037425561
 30
0.23292
 42
0.7616390336395551
  0
SEQEND
  5
373F
330
169
100
AcDbEntity
  8
BORDER
  0
POLYLINE
  5
16D
330
1A
100
AcDbEntity
  8
BORDER
100
AcDb2dPolyline
 66
     1
 10
0.0
 20
0.0
 30
0.23292
 70
     1
 40
0.00727875
 41
0.00727875
  0
VERTEX
  5
3740
330
16D
100
AcDbEntity
  8
BORDER
100
AcDbVertex
100
AcDb2dVertex
 10
9.401509417275255
 20
1.644239484539487
 30
0.23292
 42
0.2285268323977459
  0
VERTEX
  5
3741
330
16D
100
AcDbEntity
  8
BORDER
100
AcDbVertex
100
AcDb2dVertex
 10
9.402359454001109
 20
1.561618048125825
 30
0.23292
 42
0.6230043105321781
  0
VERTEX
  5
3742
330
16D
100
AcDbEntity
  8
BORDER
100
AcDbVertex
100
AcDb2dVertex
 10
9.489900356486669
 20
1.561894246255825
 30
0.23292
 42
0.2290062495557326
  0
VERTEX
  5
3743
330
16D
100
AcDbEntity
  8
BORDER
100
AcDbVertex
100
AcDb2dVertex
 10
9.490153989905566
 20
1.644599934397677
 30
0.23292
 42
0.6323121992740218
  0
SEQEND
  5
3744
330
16D
100
AcDbEntity
  8
BORDER
  0
SOLID
  5
173
330
1A
100
AcDbEntity
  8
BORDER
100
AcDbTrace
 10
9.413674029304067
 20
1.517985822179168
 30
0.23292
 11
9.426949534517854
 21
1.536890470214638
 31
0.23292
 12
9.446352195984163
 22
1.511854584978475
 32
0.23292
 13
9.446352195984163
 23
1.534846724481074
 33
0.23292
  0
SOLID
  5
174
330
1A
100
AcDbEntity
  8
BORDER
100
AcDbTrace
 10
9.375379302725827
 20
1.551196690349589
 30
0.23292
 11
9.401419716799027
 21
1.56090448258402
 31
0.23292
 12
9.413674029304067
 22
1.517985822179168
 32
0.23292
 13
9.426949534517854
 23
1.536890470214638
 33
0.23292
  0
SOLID
  5
175
330
1A
100
AcDbEntity
  8
BORDER
100
AcDbTrace
 10
9.446352195984163
 20
1.511854584978475
 30
0.23292
 11
9.446352195984163
 21
1.534846724481074
 31
0.23292
 12
9.493837656941183
 22
1.52820455084699
 32
0.23292
 13
9.481072748081766
 23
1.545576389582287
 33
0.23292
  0
SOLID
  5
176
330
1A
100
AcDbEntity
  8
BORDER
100
AcDbTrace
 10
9.058649386198178
 20
1.694587377376999
 30
0.23292
 11
9.21150313619818
 21
1.694587377376999
 31
0.23292
 12
9.058649386198178
 22
1.664562533627
 32
0.23292
 13
9.21150313619818
 23
1.664562533627
 33
0.23292
  0
SOLID
  5
177
330
1A
100
AcDbEntity
  8
BORDER
100
AcDbTrace
 10
9.323413917448176
 20
1.623619564876999
 30
0.23292
 11
9.247896886198178
 21
1.623619564876999
 31
0.23292
 12
9.323413917448176
 22
1.592684877377
 32
0.23292
 13
9.247896886198178
 23
1.592684877377
 33
0.23292
  0
SOLID
  5
178
330
1A
100
AcDbEntity
  8
BORDER
100
AcDbTrace
 10
9.445681922224418
 20
1.698279496942217
 30
0.23292
 11
9.444913242621831
 21
1.672126983355261
 31
0.23292
 12
9.397255107261331
 22
1.681357282268304
 32
0.23292
 13
9.411091340107928
 23
1.660589109713956
 33
0.23292
  0
POLYLINE
  5
179
330
1A
100
AcDbEntity
  8
BORDER
100
AcDb2dPolyline
 66
     1
 10
0.0
 20
0.0
 30
0.23292
 40
0.00727875
 41
0.00727875
  0
VERTEX
  5
3745
330
179
100
AcDbEntity
  8
BORDER
100
AcDbVertex
100
AcDb2dVertex
 10
9.524347793036914
 20
1.638634448854635
 30
0.23292
 42
0.7414713431190223
  0
VERTEX
  5
3746
330
179
100
AcDbEntity
  8
BORDER
100
AcDbVertex
100
AcDb2dVertex
 10
9.367789887620629
 20
1.637710108459589
 30
0.23292
 42
0.7414713431190223
  0
SEQEND
  5
3747
330
179
100
AcDbEntity
  8
BORDER
  0
SOLID
  5
17D
330
1A
100
AcDbEntity
  8
BORDER
100
AcDbTrace
 10
9.372657359978495
 20
1.653666385529173
 30
0.23292
 11
9.398792466466511
 21
1.635205787703086
 31
0.23292
 12
9.362103797512036
 22
1.603312206555481
 32
0.23292
 13
9.391718386065877
 23
1.600757524388525
 33
0.23292
  0
SOLID
  5
17E
330
1A
100
AcDbEntity
  8
BORDER
100
AcDbTrace
 10
9.397255107261331
 20
1.681357282268304
 30
0.23292
 11
9.411091340107928
 21
1.660589109713956
 31
0.23292
 12
9.372657359978495
 22
1.653666385529173
 32
0.23292
 13
9.398792466466511
 23
1.635205787703086
 33
0.23292
  0
POLYLINE
  5
17F
330
1A
100
AcDbEntity
  8
BORDER
100
AcDb2dPolyline
 66
     1
 10
0.0
 20
0.0
 30
0.23292
 40
0.00727875
 41
0.00727875
  0
VERTEX
  5
3748
330
17F
100
AcDbEntity
  8
BORDER
100
AcDbVertex
100
AcDb2dVertex
 10
9.367789887620629
 20
1.637710108459589
 30
0.23292
 42
0.1430540650207981
  0
VERTEX
  5
3749
330
17F
100
AcDbEntity
  8
BORDER
100
AcDbVertex
100
AcDb2dVertex
 10
9.36748653289195
 20
1.572772042237243
 30
0.23292
 42
0.1430540650207981
  0
SEQEND
  5
374A
330
17F
100
AcDbEntity
  8
BORDER
  0
SOLID
  5
183
330
1A
100
AcDbEntity
  8
BORDER
100
AcDbTrace
 10
9.479030362664262
 20
1.691193273098749
 30
0.23292
 11
9.469839628285486
 21
1.665135514995804
 31
0.23292
 12
9.445681922224418
 22
1.698279496942217
 32
0.23292
 13
9.444913242621831
 23
1.672126983355261
 33
0.23292
  0
SOLID
  5
184
330
1A
100
AcDbEntity
  8
BORDER
100
AcDbTrace
 10
9.515282703824999
 20
1.662580832828848
 30
0.23292
 11
9.488221097043039
 21
1.649807421994071
 31
0.23292
 12
9.479030362664262
 22
1.691193273098749
 32
0.23292
 13
9.469839628285486
 23
1.665135514995804
 33
0.23292
  0
SOLID
  5
185
330
1A
100
AcDbEntity
  8
BORDER
100
AcDbTrace
 10
9.530600594456293
 20
1.610976253056347
 30
0.23292
 11
9.498943620484945
 21
1.614041871656694
 31
0.23292
 12
9.515282703824999
 22
1.662580832828848
 32
0.23292
 13
9.488221097043039
 23
1.649807421994071
 33
0.23292
  0
POLYLINE
  5
186
330
1A
100
AcDbEntity
  8
BORDER
100
AcDb2dPolyline
 66
     1
 10
0.0
 20
0.0
 30
0.23292
 40
0.00727875
 41
0.00727875
  0
VERTEX
  5
374B
330
186
100
AcDbEntity
  8
BORDER
100
AcDbVertex
100
AcDb2dVertex
 10
9.52570285664297
 20
1.574438037425561
 30
0.23292
 42
0.1406948172011772
  0
VERTEX
  5
374C
330
186
100
AcDbEntity
  8
BORDER
100
AcDbVertex
100
AcDb2dVertex
 10
9.524347793036914
 20
1.638634448854635
 30
0.23292
 42
0.1406948172011772
  0
SEQEND
  5
374D
330
186
100
AcDbEntity
  8
BORDER
  0
POLYLINE
  5
18A
330
1A
100
AcDbEntity
  8
BORDER
100
AcDb2dPolyline
 66
     1
 10
0.0
 20
0.0
 30
0.23292
  0
VERTEX
  5
374E
330
18A
100
AcDbEntity
  8
BORDER
100
AcDbVertex
100
AcDb2dVertex
 10
10.11168001949472
 20
1.567304797936101
 30
0.23292
  0
VERTEX
  5
374F
330
18A
100
AcDbEntity
  8
BORDER
100
AcDbVertex
100
AcDb2dVertex
 10
10.14085769973926
 20
1.567304797936101
 30
0.23292
 42
0.3020440864755188
  0
VERTEX
  5
3750
330
18A
100
AcDbEntity
  8
BORDER
100
AcDbVertex
100
AcDb2dVertex
 10
10.15951731763917
 20
1.539814194144519
 30
0.23292
 42
0.2653699712401423
  0
VERTEX
  5
3751
330
18A
100
AcDbEntity
  8
BORDER
100
AcDbVertex
100
AcDb2dVertex
 10
10.20954654929427
 20
1.546404713237672
 30
0.23292
 42
0.6356064402471244
  0
VERTEX
  5
3752
330
18A
100
AcDbEntity
  8
BORDER
100
AcDbVertex
100
AcDb2dVertex
 10
10.20147155985658
 20
1.584041612188609
 30
0.23292
 42
-0.0009437836138568
  0
VERTEX
  5
3753
330
18A
100
AcDbEntity
  8
BORDER
100
AcDbVertex
100
AcDb2dVertex
 10
10.14182328184016
 20
1.59794230930514
 30
0.23292
 42
-0.3442454331168749
  0
VERTEX
  5
3754
330
18A
100
AcDbEntity
  8
BORDER
100
AcDbVertex
100
AcDb2dVertex
 10
10.10662589268015
 20
1.641747287338849
 30
0.23292
 42
-0.322222187521162
  0
VERTEX
  5
3755
330
18A
100
AcDbEntity
  8
BORDER
100
AcDbVertex
100
AcDb2dVertex
 10
10.14272365726811
 20
1.693434875650743
 30
0.23292
 42
-0.1417364340760132
  0
VERTEX
  5
3756
330
18A
100
AcDbEntity
  8
BORDER
100
AcDbVertex
100
AcDb2dVertex
 10
10.20442611449475
 20
1.696901505294216
 30
0.23292
 42
-0.3337744805077131
  0
VERTEX
  5
3757
330
18A
100
AcDbEntity
  8
BORDER
100
AcDbVertex
100
AcDb2dVertex
 10
10.24869951408019
 20
1.644447814562008
 30
0.23292
  0
VERTEX
  5
3758
330
18A
100
AcDbEntity
  8
BORDER
100
AcDbVertex
100
AcDb2dVertex
 10
10.21271744641968
 20
1.644447814562008
 30
0.23292
 42
0.3019792396306431
  0
VERTEX
  5
3759
330
18A
100
AcDbEntity
  8
BORDER
100
AcDbVertex
100
AcDb2dVertex
 10
10.19552797133469
 20
1.668336199365982
 30
0.23292
 42
0.1972875622237244
  0
VERTEX
  5
375A
330
18A
100
AcDbEntity
  8
BORDER
100
AcDbVertex
100
AcDb2dVertex
 10
10.15736929664568
 20
1.667226922198509
 30
0.23292
 42
0.728374493267646
  0
VERTEX
  5
375B
330
18A
100
AcDbEntity
  8
BORDER
100
AcDbVertex
100
AcDb2dVertex
 10
10.16170758319223
 20
1.626787848940005
 30
0.23292
 42
0.0019568917075044
  0
SEQEND
  5
375C
330
18A
100
AcDbEntity
  8
BORDER
  0
POLYLINE
  5
19A
330
1A
100
AcDbEntity
  8
BORDER
100
AcDb2dPolyline
 66
     1
 10
0.0
 20
0.0
 30
0.23292
  0
VERTEX
  5
375D
330
19A
100
AcDbEntity
  8
BORDER
100
AcDbVertex
100
AcDb2dVertex
 10
10.16170758319223
 20
1.626787848940005
 30
0.23292
 42
0.0019568917075044
  0
VERTEX
  5
375E
330
19A
100
AcDbEntity
  8
BORDER
100
AcDbVertex
100
AcDb2dVertex
 10
10.21381724056309
 20
1.616171594371281
 30
0.23292
 42
-0.2136964031287707
  0
VERTEX
  5
375F
330
19A
100
AcDbEntity
  8
BORDER
100
AcDbVertex
100
AcDb2dVertex
 10
10.24925820477044
 20
1.591400352267789
 30
0.23292
 42
-0.2075585583027768
  0
VERTEX
  5
3760
330
19A
100
AcDbEntity
  8
BORDER
100
AcDbVertex
100
AcDb2dVertex
 10
10.25415921431792
 20
1.554033388507869
 30
0.23292
 42
-0.2311984101377718
  0
VERTEX
  5
3761
330
19A
100
AcDbEntity
  8
BORDER
100
AcDbVertex
100
AcDb2dVertex
 10
10.21968651791906
 20
1.515767999385046
 30
0.23292
 42
-0.176335766587305
  0
VERTEX
  5
3762
330
19A
100
AcDbEntity
  8
BORDER
100
AcDbVertex
100
AcDb2dVertex
 10
10.14773119678748
 20
1.513320770613721
 30
0.23292
 42
-0.2115906095274752
  0
VERTEX
  5
3763
330
19A
100
AcDbEntity
  8
BORDER
100
AcDbVertex
100
AcDb2dVertex
 10
10.10946972639185
 20
1.547707700178024
 30
0.23292
  0
SEQEND
  5
3764
330
19A
100
AcDbEntity
  8
BORDER
  0
LINE
  5
1A3
330
1A
100
AcDbEntity
  8
BORDER
100
AcDbLine
 10
9.963014507165921
 20
1.694587377376999
 30
0.23292
 11
9.963014507165921
 21
1.525488445073501
 31
0.23292
  0
POLYLINE
  5
1A4
330
1A
100
AcDbEntity
  8
BORDER
100
AcDb2dPolyline
 66
     1
 10
0.0
 20
0.0
 30
0.23292
  0
VERTEX
  5
3765
330
1A4
100
AcDbEntity
  8
BORDER
100
AcDbVertex
100
AcDb2dVertex
 10
9.808424325260679
 20
1.543553314876999
 30
0.23292
  0
VERTEX
  5
3766
330
1A4
100
AcDbEntity
  8
BORDER
100
AcDbVertex
100
AcDb2dVertex
 10
9.86204141744818
 20
1.694587377376999
 30
0.23292
  0
VERTEX
  5
3767
330
1A4
100
AcDbEntity
  8
BORDER
100
AcDbVertex
100
AcDb2dVertex
 10
9.902984386198179
 20
1.694587377376999
 30
0.23292
  0
VERTEX
  5
3768
330
1A4
100
AcDbEntity
  8
BORDER
100
AcDbVertex
100
AcDb2dVertex
 10
9.963014507165921
 20
1.5254884450735
 30
0.23292
  0
SEQEND
  5
3769
330
1A4
100
AcDbEntity
  8
BORDER
  0
LINE
  5
1AA
330
1A
100
AcDbEntity
  8
BORDER
100
AcDbLine
 10
9.680982511198179
 20
1.694587377376999
 30
0.23292
 11
9.680982511198179
 21
1.512618627377
 31
0.23292
  0
LINE
  5
1AB
330
1A
100
AcDbEntity
  8
BORDER
100
AcDbLine
 10
9.71919594869818
 20
1.543553314876999
 30
0.23292
 11
9.71919594869818
 21
1.694587377376999
 31
0.23292
  0
SOLID
  5
1AC
330
1A
100
AcDbEntity
  8
BORDER
100
AcDbTrace
 10
9.639484283044071
 20
1.565556791053879
 30
0.23292
 11
9.669006035897114
 21
1.575896286515048
 31
0.23292
 12
9.631119786402374
 22
1.576881000368493
 32
0.23292
 13
9.650800954971069
 23
1.590666994316717
 33
0.23292
  0
SOLID
  5
1AD
330
1A
100
AcDbEntity
  8
BORDER
100
AcDbTrace
 10
9.638754776988916
 20
1.554694285344187
 30
0.23292
 11
9.673330663821397
 21
1.565159019046526
 31
0.23292
 12
9.639484283044071
 22
1.565556791053879
 32
0.23292
 13
9.669006035897114
 23
1.575896286515048
 33
0.23292
  0
POLYLINE
  5
1AE
330
1A
100
AcDbEntity
  8
BORDER
100
AcDb2dPolyline
 66
     1
 10
0.0
 20
0.0
 30
0.23292
 40
0.00727875
 41
0.00727875
  0
VERTEX
  5
376A
330
1AE
100
AcDbEntity
  8
BORDER
100
AcDbVertex
100
AcDb2dVertex
 10
9.642380869084329
 20
1.555004940307469
 30
0.23292
 42
0.3893977487990803
  0
VERTEX
  5
376B
330
1AE
100
AcDbEntity
  8
BORDER
100
AcDbVertex
100
AcDb2dVertex
 10
9.605367954366725
 20
1.588982464208113
 30
0.23292
 42
0.3893977487990803
  0
SEQEND
  5
376C
330
1AE
100
AcDbEntity
  8
BORDER
  0
POLYLINE
  5
1B2
330
1A
100
AcDbEntity
  8
BORDER
100
AcDb2dPolyline
 66
     1
 10
0.0
 20
0.0
 30
0.23292
 40
0.00727875
 41
0.00727875
  0
VERTEX
  5
376D
330
1B2
100
AcDbEntity
  8
BORDER
100
AcDbVertex
100
AcDb2dVertex
 10
9.669708827241402
 20
1.564802157478922
 30
0.23292
 42
0.3581345567762107
  0
VERTEX
  5
376E
330
1B2
100
AcDbEntity
  8
BORDER
100
AcDbVertex
100
AcDb2dVertex
 10
9.638745022926899
 20
1.595727482653228
 30
0.23292
 42
0.3581345567762107
  0
SEQEND
  5
376F
330
1B2
100
AcDbEntity
  8
BORDER
  0
SOLID
  5
1B6
330
1A
100
AcDbEntity
  8
BORDER
100
AcDbTrace
 10
10.2831165716657
 20
1.559355371926152
 30
0.23292
 11
10.36871280663553
 21
1.6132492976479
 31
0.23292
 12
10.28312295038094
 22
1.542201899703388
 32
0.23292
 13
10.36871467166569
 23
1.595306573926152
 33
0.23292
  0
LINE
  5
1B7
330
1A
100
AcDbEntity
  8
BORDER
100
AcDbLine
 10
9.999408257165923
 20
1.593594721126999
 30
0.23292
 11
9.999408257165923
 21
1.540823783626999
 31
0.23292
  0
ARC
  5
1B8
330
1A
100
AcDbEntity
  8
BORDER
100
AcDbCircle
 10
10.04777284881536
 20
1.568138769150829
 30
0.23292
 40
0.025455951976171
100
AcDbArc
 50
313.2275081247476
 51
90.0
  0
TEXT
  5
1B9
330
1A
100
AcDbEntity
  8
BORDER
100
AcDbText
 10
10.47116872425655
 20
1.507766127377
 30
0.23292
 40
0.0727875
  1
NEWTON NJ
100
AcDbText
  0
SOLID
  5
1BA
330
1A
100
AcDbEntity
  8
BORDER
100
AcDbTrace
 10
10.36871467166569
 20
1.540951780426152
 30
0.23292
 11
10.2831165716657
 21
1.540951780426152
 31
0.23292
 12
10.36871467166569
 22
1.558927381426152
 32
0.23292
 13
10.2831165716657
 23
1.558927381426152
 33
0.23292
  0
SOLID
  5
1BB
330
1A
100
AcDbEntity
  8
BORDER
100
AcDbTrace
 10
10.28311657703478
 20
1.50799651274248
 30
0.23292
 11
10.28311657703478
 21
1.52597211374248
 31
0.23292
 12
10.36871467703478
 22
1.50799651274248
 32
0.23292
 13
10.36871467703478
 23
1.52597211374248
 33
0.23292
  0
POLYLINE
  5
1BC
330
1A
100
AcDbEntity
  8
BORDER
100
AcDb2dPolyline
 66
     1
 10
0.0
 20
0.0
 30
0.23292
  0
VERTEX
  5
3770
330
1BC
100
AcDbEntity
  8
BORDER
100
AcDbVertex
100
AcDb2dVertex
 10
9.96758329244818
 20
1.512618627376999
 30
0.23292
  0
VERTEX
  5
3771
330
1BC
100
AcDbEntity
  8
BORDER
100
AcDbVertex
100
AcDb2dVertex
 10
9.929369854948182
 20
1.512618627376999
 30
0.23292
  0
VERTEX
  5
3772
330
1BC
100
AcDbEntity
  8
BORDER
100
AcDbVertex
100
AcDb2dVertex
 10
9.917317414121894
 20
1.551741908626999
 30
0.23292
  0
SEQEND
  5
3773
330
1BC
100
AcDbEntity
  8
BORDER
  0
LINE
  5
1C1
330
1A
100
AcDbEntity
  8
BORDER
100
AcDbLine
 10
9.808424325260679
 20
1.543553314876999
 30
0.23292
 11
9.71919594869818
 21
1.543553314876999
 31
0.23292
  0
LINE
  5
1C2
330
1A
100
AcDbEntity
  8
BORDER
100
AcDbLine
 10
9.680982511198179
 20
1.512618627377
 30
0.23292
 11
9.810180323698181
 21
1.512618627377
 31
0.23292
  0
SOLID
  5
1C3
330
1A
100
AcDbEntity
  8
BORDER
100
AcDbTrace
 10
9.642863113032616
 20
1.517678522985564
 30
0.23292
 11
9.676616947103509
 21
1.521226308844847
 31
0.23292
 12
9.641563571503626
 22
1.521908884203857
 32
0.23292
 13
9.677319443762554
 23
1.52467634898087
 33
0.23292
  0
SOLID
  5
1C4
330
1A
100
AcDbEntity
  8
BORDER
100
AcDbTrace
 10
9.638754776988916
 20
1.554694285344187
 30
0.23292
 11
9.641563571503626
 21
1.521908884203857
 31
0.23292
 12
9.673330663821397
 22
1.565159019046526
 32
0.23292
 13
9.677319443762554
 23
1.52467634898087
 33
0.23292
  0
POLYLINE
  5
1C5
330
1A
100
AcDbEntity
  8
BORDER
100
AcDb2dPolyline
 66
     1
 10
0.0
 20
0.0
 30
0.23292
 40
0.00727875
 41
0.00727875
  0
VERTEX
  5
3774
330
1C5
100
AcDbEntity
  8
BORDER
100
AcDbVertex
100
AcDb2dVertex
 10
9.645189663599042
 20
1.52221953916714
 30
0.23292
 42
0.1148360225250129
  0
VERTEX
  5
3775
330
1C5
100
AcDbEntity
  8
BORDER
100
AcDbVertex
100
AcDb2dVertex
 10
9.647698161652789
 20
1.514498506973542
 30
0.23292
 42
0.1148360225250129
  0
SEQEND
  5
3776
330
1C5
100
AcDbEntity
  8
BORDER
  0
SOLID
  5
1C9
330
1A
100
AcDbEntity
  8
BORDER
100
AcDbTrace
 10
9.644581897367922
 20
1.512618627376999
 30
0.23292
 11
9.682098712661003
 21
1.512618627376999
 31
0.23292
 12
9.642863113032616
 22
1.517678522985564
 32
0.23292
 13
9.676616947103509
 23
1.521226308844847
 33
0.23292
  0
POLYLINE
  5
1CA
330
1A
100
AcDbEntity
  8
BORDER
100
AcDb2dPolyline
 66
     1
 10
0.0
 20
0.0
 30
0.23292
 40
0.00727875
 41
0.00727875
  0
VERTEX
  5
3777
330
1CA
100
AcDbEntity
  8
BORDER
100
AcDbVertex
100
AcDb2dVertex
 10
9.673697607182559
 20
1.524319487413266
 30
0.23292
 42
0.0950669764493849
  0
VERTEX
  5
3778
330
1CA
100
AcDbEntity
  8
BORDER
100
AcDbVertex
100
AcDb2dVertex
 10
9.676604318320473
 20
1.514499327909478
 30
0.23292
 42
0.1404915454274296
  0
SEQEND
  5
3779
330
1CA
100
AcDbEntity
  8
BORDER
  0
POLYLINE
  5
1CE
330
1A
100
AcDbEntity
  8
BORDER
100
AcDb2dPolyline
 66
     1
 10
0.0
 20
0.0
 30
0.23292
  0
VERTEX
  5
377A
330
1CE
100
AcDbEntity
  8
BORDER
100
AcDbVertex
100
AcDb2dVertex
 10
9.917317414121894
 20
1.551741908626999
 30
0.23292
  0
VERTEX
  5
377B
330
1CE
100
AcDbEntity
  8
BORDER
100
AcDbVertex
100
AcDb2dVertex
 10
9.847708389524461
 20
1.551741908626999
 30
0.23292
  0
VERTEX
  5
377C
330
1CE
100
AcDbEntity
  8
BORDER
100
AcDbVertex
100
AcDb2dVertex
 10
9.83565594869818
 20
1.512618627376999
 30
0.23292
  0
VERTEX
  5
377D
330
1CE
100
AcDbEntity
  8
BORDER
100
AcDbVertex
100
AcDb2dVertex
 10
9.797442511198179
 20
1.512618627376999
 30
0.23292
  0
SEQEND
  5
377E
330
1CE
100
AcDbEntity
  8
BORDER
  0
LINE
  5
1D4
330
1A
100
AcDbEntity
  8
BORDER
100
AcDbLine
 10
9.963014507165921
 20
1.512618627377
 30
0.23292
 11
10.05126935091592
 21
1.512618627377
 31
0.23292
  0
LINE
  5
1D5
330
1A
100
AcDbEntity
  8
BORDER
100
AcDbLine
 10
9.999408257165923
 20
1.540823783626999
 30
0.23292
 11
10.04308075716591
 21
1.540823783626999
 31
0.23292
  0
ARC
  5
1D6
330
1A
100
AcDbEntity
  8
BORDER
100
AcDbCircle
 10
10.06537959819532
 20
1.562603677527734
 30
0.23292
 40
0.0465384738210222
100
AcDbArc
 50
297.4526478761237
 51
341.3323115150402
  0
ARC
  5
1D7
330
1A
100
AcDbEntity
  8
BORDER
100
AcDbCircle
 10
10.05126935091593
 20
1.589763991413031
 30
0.23292
 40
0.077145364036032
100
AcDbArc
 50
269.9999999999952
 51
297.4526478761186
  0
ARC
  5
1D8
330
1A
100
AcDbEntity
  8
BORDER
100
AcDbCircle
 10
10.04308075716591
 20
1.573130534452434
 30
0.23292
 40
0.0323067508254348
100
AcDbArc
 50
270.0
 51
313.2275081247473
  0
TEXT
  5
1D9
330
1A
100
AcDbEntity
  8
BORDER
100
AcDbText
 10
10.47116872425655
 20
1.629078627377
 30
0.23292
 40
0.0727875
  1
PO BOX 366
100
AcDbText
  0
SOLID
  5
1DA
330
1A
100
AcDbEntity
  8
BORDER
100
AcDbTrace
 10
10.32846293341717
 20
1.63776377506151
 30
0.23292
 11
10.32940419153514
 21
1.623183984996875
 31
0.23292
 12
10.35122898157961
 22
1.645004362791319
 32
0.23292
 13
10.35764193507421
 23
1.634438692866748
 33
0.23292
  0
POLYLINE
  5
1DB
330
1A
100
AcDbEntity
  8
BORDER
100
AcDb2dPolyline
 66
     1
 10
0.0
 20
0.0
 30
0.23292
 40
0.003423924
 41
0.003423924
  0
VERTEX
  5
377F
330
1DB
100
AcDbEntity
  8
BORDER
100
AcDbVertex
100
AcDb2dVertex
 10
10.30730792852299
 20
1.62714063258554
 30
0.23292
 42
0.2706611322925477
  0
VERTEX
  5
3780
330
1DB
100
AcDbEntity
  8
BORDER
100
AcDbVertex
100
AcDb2dVertex
 10
10.355921385404
 20
1.634716335776515
 30
0.23292
 42
0.2706611322925477
  0
SEQEND
  5
3781
330
1DB
100
AcDbEntity
  8
BORDER
  0
POLYLINE
  5
1DF
330
1A
100
AcDbEntity
  8
BORDER
100
AcDb2dPolyline
 66
     1
 10
0.0
 20
0.0
 30
0.23292
 40
0.003423924
 41
0.003423924
  0
VERTEX
  5
3782
330
1DF
100
AcDbEntity
  8
BORDER
100
AcDbVertex
100
AcDb2dVertex
 10
10.30921660813503
 20
1.683359936195762
 30
0.23292
 42
0.3426274439635524
  0
VERTEX
  5
3783
330
1DF
100
AcDbEntity
  8
BORDER
100
AcDbVertex
100
AcDb2dVertex
 10
10.29270799830878
 20
1.665804904833641
 30
0.23292
 42
0.2942809489964497
  0
VERTEX
  5
3784
330
1DF
100
AcDbEntity
  8
BORDER
100
AcDbVertex
100
AcDb2dVertex
 10
10.30447183892257
 20
1.643092294320815
 30
0.23292
 42
0.2735375373643303
  0
VERTEX
  5
3785
330
1DF
100
AcDbEntity
  8
BORDER
100
AcDbVertex
100
AcDb2dVertex
 10
10.34728648890412
 20
1.6436711034951
 30
0.23292
 42
0.208169861593478
  0
VERTEX
  5
3786
330
1DF
100
AcDbEntity
  8
BORDER
100
AcDbVertex
100
AcDb2dVertex
 10
10.35816840810036
 20
1.659148648767027
 30
0.23292
 42
0.4189849082168211
  0
VERTEX
  5
3787
330
1DF
100
AcDbEntity
  8
BORDER
100
AcDbVertex
100
AcDb2dVertex
 10
10.3413912253114
 20
1.684139921413978
 30
0.23292
 42
0.4189849082168211
  0
SEQEND
  5
3788
330
1DF
100
AcDbEntity
  8
BORDER
  0
SOLID
  5
1E7
330
1A
100
AcDbEntity
  8
BORDER
100
AcDbTrace
 10
10.2831165716657
 20
1.613710165426152
 30
0.23292
 11
10.36871467166569
 21
1.613710165426152
 31
0.23292
 12
10.2831165716657
 22
1.595734564426152
 32
0.23292
 13
10.36871467166569
 23
1.595734564426152
 33
0.23292
  0
SOLID
  5
1E8
330
1A
100
AcDbEntity
  8
BORDER
100
AcDbTrace
 10
9.635563981562411
 20
1.612130937424133
 30
0.23292
 11
9.649470688391525
 21
1.605647495636065
 31
0.23292
 12
9.616429435817449
 22
1.612773969591263
 32
0.23292
 13
9.639097380516426
 23
1.599349760185352
 33
0.23292
  0
SOLID
  5
1E9
330
1A
100
AcDbEntity
  8
BORDER
100
AcDbTrace
 10
9.632046797965395
 20
1.668856604230452
 30
0.23292
 11
9.644856196204125
 21
1.689591490745921
 31
0.23292
 12
9.616429435817449
 22
1.666846103113329
 32
0.23292
 13
9.633194085913112
 23
1.694587377376999
 33
0.23292
  0
SOLID
  5
1EA
330
1A
100
AcDbEntity
  8
BORDER
100
AcDbTrace
 10
9.644479449197104
 20
1.655661676447882
 30
0.23292
 11
9.672735474723717
 21
1.670364595977032
 31
0.23292
 12
9.632046797965395
 22
1.668856604230452
 32
0.23292
 13
9.644856196204125
 23
1.689591490745921
 33
0.23292
  0
SOLID
  5
1EB
330
1A
100
AcDbEntity
  8
BORDER
100
AcDbTrace
 10
9.635563981562411
 20
1.612130937424133
 30
0.23292
 11
9.649470688391525
 21
1.605647495636065
 31
0.23292
 12
9.64824691926732
 22
1.640581758982087
 32
0.23292
 13
9.676502944793933
 23
1.63153380850261
 33
0.23292
  0
SOLID
  5
1EC
330
1A
100
AcDbEntity
  8
BORDER
100
AcDbTrace
 10
9.631119786402374
 20
1.576881000368493
 30
0.23292
 11
9.650800954971069
 21
1.590666994316717
 31
0.23292
 12
9.621245592338928
 22
1.586708291434854
 32
0.23292
 13
9.639097380516426
 23
1.599349760185352
 33
0.23292
  0
POLYLINE
  5
1ED
330
1A
100
AcDbEntity
  8
BORDER
100
AcDb2dPolyline
 66
     1
 10
0.0
 20
0.0
 30
0.23292
 40
0.00727875
 41
0.00727875
  0
VERTEX
  5
3789
330
1ED
100
AcDbEntity
  8
BORDER
100
AcDbVertex
100
AcDb2dVertex
 10
9.616429435817449
 20
1.609134594591263
 30
0.23292
 42
1.0
  0
VERTEX
  5
378A
330
1ED
100
AcDbEntity
  8
BORDER
100
AcDbVertex
100
AcDb2dVertex
 10
9.616429435817449
 20
1.67048547811333
 30
0.23292
 42
1.0
  0
SEQEND
  5
378B
330
1ED
100
AcDbEntity
  8
BORDER
  0
POLYLINE
  5
1F1
330
1A
100
AcDbEntity
  8
BORDER
100
AcDb2dPolyline
 66
     1
 10
0.0
 20
0.0
 30
0.23292
 40
0.00727875
 41
0.00727875
  0
VERTEX
  5
378C
330
1F1
100
AcDbEntity
  8
BORDER
100
AcDbVertex
100
AcDb2dVertex
 10
9.638647934721481
 20
1.602961276330689
 30
0.23292
 42
0.9399343180161681
  0
VERTEX
  5
378D
330
1F1
100
AcDbEntity
  8
BORDER
100
AcDbVertex
100
AcDb2dVertex
 10
9.633194085913112
 20
1.690948002377
 30
0.23292
 42
0.9399343180161681
  0
SEQEND
  5
378E
330
1F1
100
AcDbEntity
  8
BORDER
  0
SOLID
  5
1F5
330
1A
100
AcDbEntity
  8
BORDER
100
AcDbTrace
 10
9.621245592338928
 20
1.586708291434854
 30
0.23292
 11
9.639097380516426
 21
1.599349760185352
 31
0.23292
 12
9.605367954366725
 22
1.585343089208113
 32
0.23292
 13
9.616429435817449
 23
1.612773969591263
 33
0.23292
  0
SOLID
  5
1F6
330
1A
100
AcDbEntity
  8
BORDER
100
AcDbTrace
 10
9.569925144340301
 20
1.612773969591263
 30
0.23292
 11
9.569925144340301
 21
1.585343089208113
 31
0.23292
 12
9.616429435817449
 22
1.612773969591263
 32
0.23292
 13
9.605367954366725
 23
1.585343089208113
 33
0.23292
  0
SOLID
  5
1F7
330
1A
100
AcDbEntity
  8
BORDER
100
AcDbTrace
 10
9.569925144340301
 20
1.666846103113329
 30
0.23292
 11
9.569925144340301
 21
1.690622699047484
 31
0.23292
 12
9.616429435817449
 22
1.666846103113329
 32
0.23292
 13
9.633194085913112
 23
1.694587377376999
 33
0.23292
  0
LINE
  5
1F8
330
1A
100
AcDbEntity
  8
BORDER
100
AcDbLine
 10
9.71919594869818
 20
1.694587377376999
 30
0.23292
 11
9.680982511198179
 21
1.694587377376999
 31
0.23292
  0
SOLID
  5
1F9
330
1A
100
AcDbEntity
  8
BORDER
100
AcDbTrace
 10
9.64824691926732
 20
1.640581758982087
 30
0.23292
 11
9.676502944793933
 21
1.63153380850261
 31
0.23292
 12
9.644479449197104
 22
1.655661676447882
 32
0.23292
 13
9.672735474723717
 23
1.670364595977032
 33
0.23292
  0
LINE
  5
1FA
330
1A
100
AcDbEntity
  8
BORDER
100
AcDbLine
 10
9.882512901823181
 20
1.66472041174168
 30
0.23292
 11
9.856117069170709
 21
1.579037221126999
 31
0.23292
  0
LINE
  5
1FB
330
1A
100
AcDbEntity
  8
BORDER
100
AcDbLine
 10
9.856117069170709
 20
1.579037221126999
 30
0.23292
 11
9.908908734475653
 21
1.579037221126999
 31
0.23292
  0
LINE
  5
1FC
330
1A
100
AcDbEntity
  8
BORDER
100
AcDbLine
 10
9.908908734475653
 20
1.579037221126999
 30
0.23292
 11
9.882512901823181
 21
1.66472041174168
 31
0.23292
  0
LINE
  5
1FD
330
1A
100
AcDbEntity
  8
BORDER
100
AcDbLine
 10
10.04803068354796
 20
1.694587377376999
 30
0.23292
 11
9.963014507165921
 21
1.694587377376999
 31
0.23292
  0
LINE
  5
1FE
330
1A
100
AcDbEntity
  8
BORDER
100
AcDbLine
 10
10.04542171032591
 20
1.667292064876999
 30
0.23292
 11
9.999408257165923
 21
1.667292064876999
 31
0.23292
  0
LINE
  5
1FF
330
1A
100
AcDbEntity
  8
BORDER
100
AcDbLine
 10
9.999408257165923
 20
1.621799877376999
 30
0.23292
 11
10.04542171224326
 21
1.621799877376999
 31
0.23292
  0
ARC
  5
200
330
1A
100
AcDbEntity
  8
BORDER
100
AcDbCircle
 10
10.04542171224326
 20
1.644545971126999
 30
0.23292
 40
0.02274609375
100
AcDbArc
 50
270.0
 51
90.00000482967505
  0
LINE
  5
201
330
1A
100
AcDbEntity
  8
BORDER
100
AcDbLine
 10
10.04777284881536
 20
1.593594721126999
 30
0.23292
 11
9.999408257165923
 21
1.593594721126999
 31
0.23292
  0
LINE
  5
202
330
1A
100
AcDbEntity
  8
BORDER
100
AcDbLine
 10
9.999408257165923
 20
1.667292064876999
 30
0.23292
 11
9.999408257165923
 21
1.621799877376999
 31
0.23292
  0
ARC
  5
203
330
1A
100
AcDbEntity
  8
BORDER
100
AcDbCircle
 10
10.06537959819532
 20
1.562603677527734
 30
0.23292
 40
0.0465384738210222
100
AcDbArc
 50
5.797666812800194
 51
41.82143111053831
  0
ARC
  5
204
330
1A
100
AcDbEntity
  8
BORDER
100
AcDbCircle
 10
10.06564325032123
 20
1.648691017232375
 30
0.23292
 40
0.0409573319972303
100
AcDbArc
 50
358.6532608214001
 51
58.67020583628288
  0
ARC
  5
205
330
1A
100
AcDbEntity
  8
BORDER
100
AcDbCircle
 10
10.07186366730278
 20
1.648544779194484
 30
0.23292
 40
0.0347351962716
100
AcDbArc
 50
313.1575629115595
 51
358.653260821401
  0
ARC
  5
206
330
1A
100
AcDbEntity
  8
BORDER
100
AcDbCircle
 10
10.04490044466592
 20
1.677300346127003
 30
0.23292
 40
0.0741547092642271
100
AcDbArc
 50
295.3783953421117
 51
313.157562911559
  0
ARC
  5
207
330
1A
100
AcDbEntity
  8
BORDER
100
AcDbCircle
 10
10.05138073223445
 20
1.550077821550028
 30
0.23292
 40
0.06532318345851
100
AcDbArc
 50
41.8214311105379
 51
67.21116987831337
  0
ARC
  5
208
330
1A
100
AcDbEntity
  8
BORDER
100
AcDbCircle
 10
10.04803068354797
 20
1.619757338300741
 30
0.23292
 40
0.0748300390762589
100
AcDbArc
 50
58.67020583628413
 51
90.00000000000101
  0
SOLID
  5
209
330
1A
100
AcDbEntity
  8
BORDER
100
AcDbTrace
 10
10.30713280993739
 20
1.68274214926715
 30
0.23292
 11
10.30601949388388
 21
1.697559625815669
 31
0.23292
 12
10.30948246462571
 22
1.681668743061965
 32
0.23292
 13
10.30948246462571
 23
1.698414656901373
 33
0.23292
  0
SOLID
  5
20A
330
1A
100
AcDbEntity
  8
BORDER
100
AcDbTrace
 10
10.303519593291
 20
1.681816689127772
 30
0.23292
 11
10.29489139387628
 21
1.691223005298504
 31
0.23292
 12
10.30713280993739
 22
1.68274214926715
 32
0.23292
 13
10.30601949388388
 23
1.697559625815669
 33
0.23292
  0
POLYLINE
  5
20B
330
1A
100
AcDbEntity
  8
BORDER
100
AcDb2dPolyline
 66
     1
 10
0.0
 20
0.0
 30
0.23292
 40
0.003423924
 41
0.003423924
  0
VERTEX
  5
378F
330
20B
100
AcDbEntity
  8
BORDER
100
AcDbVertex
100
AcDb2dVertex
 10
10.3091662271699
 20
1.696644517820149
 30
0.23292
 42
0.2841209316902218
  0
VERTEX
  5
3790
330
20B
100
AcDbEntity
  8
BORDER
100
AcDbVertex
100
AcDb2dVertex
 10
10.28443829516057
 20
1.675959376766888
 30
0.23292
 42
0.2888447634665965
  0
SEQEND
  5
3791
330
20B
100
AcDbEntity
  8
BORDER
  0
SOLID
  5
20F
330
1A
100
AcDbEntity
  8
BORDER
100
AcDbTrace
 10
10.31089278188175
 20
1.63917472248712
 30
0.23292
 11
10.30210770611404
 21
1.628671002763135
 31
0.23292
 12
10.32846293341717
 22
1.63776377506151
 32
0.23292
 13
10.32940419153514
 23
1.623183984996875
 33
0.23292
  0
SOLID
  5
210
330
1A
100
AcDbEntity
  8
BORDER
100
AcDbTrace
 10
10.29457764117029
 20
1.652186793189966
 30
0.23292
 11
10.28422380187263
 21
1.647953950913136
 31
0.23292
 12
10.31089278188175
 22
1.63917472248712
 32
0.23292
 13
10.30210770611404
 23
1.628671002763135
 33
0.23292
  0
SOLID
  5
211
330
1A
100
AcDbEntity
  8
BORDER
100
AcDbTrace
 10
10.29285200128735
 20
1.670372337786714
 30
0.23292
 11
10.28296879104867
 21
1.674448408127365
 31
0.23292
 12
10.29457764117029
 22
1.652186793189966
 32
0.23292
 13
10.28422380187263
 23
1.647953950913136
 33
0.23292
  0
SOLID
  5
212
330
1A
100
AcDbEntity
  8
BORDER
100
AcDbTrace
 10
10.303519593291
 20
1.681816689127772
 30
0.23292
 11
10.29489139387628
 21
1.691223005298504
 31
0.23292
 12
10.29285200128735
 22
1.670372337786714
 32
0.23292
 13
10.28296879104867
 23
1.674448408127365
 33
0.23292
  0
POLYLINE
  5
213
330
1A
100
AcDbEntity
  8
BORDER
100
AcDb2dPolyline
 66
     1
 10
0.0
 20
0.0
 30
0.23292
 40
0.003423924
 41
0.003423924
  0
VERTEX
  5
3792
330
213
100
AcDbEntity
  8
BORDER
100
AcDbVertex
100
AcDb2dVertex
 10
10.28443829516057
 20
1.675959376766888
 30
0.23292
 42
0.3986208060685013
  0
VERTEX
  5
3793
330
213
100
AcDbEntity
  8
BORDER
100
AcDbVertex
100
AcDb2dVertex
 10
10.30730792852299
 20
1.62714063258554
 30
0.23292
 42
0.3986208060685013
  0
SEQEND
  5
3794
330
213
100
AcDbEntity
  8
BORDER
  0
SOLID
  5
217
330
1A
100
AcDbEntity
  8
BORDER
100
AcDbTrace
 10
10.34342638155978
 20
1.683032972569047
 30
0.23292
 11
10.34524668631071
 21
1.698752272534449
 31
0.23292
 12
10.34107455189346
 22
1.682457502965489
 32
0.23292
 13
10.34107455189346
 23
1.699771227813754
 33
0.23292
  0
POLYLINE
  5
218
330
1A
100
AcDbEntity
  8
BORDER
100
AcDb2dPolyline
 66
     1
 10
0.0
 20
0.0
 30
0.23292
 40
0.003423924
 41
0.003423924
  0
VERTEX
  5
3795
330
218
100
AcDbEntity
  8
BORDER
100
AcDbVertex
100
AcDb2dVertex
 10
10.36555909867967
 20
1.680218539873607
 30
0.23292
 42
0.2619660936757589
  0
VERTEX
  5
3796
330
218
100
AcDbEntity
  8
BORDER
100
AcDbVertex
100
AcDb2dVertex
 10
10.34131102131013
 20
1.698021046372441
 30
0.23292
 42
0.2656465770789468
  0
SEQEND
  5
3797
330
218
100
AcDbEntity
  8
BORDER
  0
SOLID
  5
21C
330
1A
100
AcDbEntity
  8
BORDER
100
AcDbTrace
 10
10.35417547372578
 20
1.676701372565032
 30
0.23292
 11
10.3647481808385
 21
1.683802888415973
 31
0.23292
 12
10.34342638155978
 22
1.683032972569047
 32
0.23292
 13
10.34524668631071
 23
1.698752272534449
 33
0.23292
  0
SOLID
  5
21D
330
1A
100
AcDbEntity
  8
BORDER
100
AcDbTrace
 10
10.35868187347875
 20
1.661805510048423
 30
0.23292
 11
10.36977454979374
 21
1.656262863530616
 31
0.23292
 12
10.35417547372578
 22
1.676701372565032
 32
0.23292
 13
10.3647481808385
 23
1.683802888415973
 33
0.23292
  0
SOLID
  5
21E
330
1A
100
AcDbEntity
  8
BORDER
100
AcDbTrace
 10
10.35122898157961
 20
1.645004362791319
 30
0.23292
 11
10.35764193507421
 21
1.634438692866748
 31
0.23292
 12
10.35868187347875
 22
1.661805510048423
 32
0.23292
 13
10.36977454979374
 23
1.656262863530616
 33
0.23292
  0
POLYLINE
  5
21F
330
1A
100
AcDbEntity
  8
BORDER
100
AcDb2dPolyline
 66
     1
 10
0.0
 20
0.0
 30
0.23292
 40
0.003423924
 41
0.003423924
  0
VERTEX
  5
3798
330
21F
100
AcDbEntity
  8
BORDER
100
AcDbVertex
100
AcDb2dVertex
 10
10.36854182856266
 20
1.656093988051443
 30
0.23292
 42
0.1521907920671271
  0
VERTEX
  5
3799
330
21F
100
AcDbEntity
  8
BORDER
100
AcDbVertex
100
AcDb2dVertex
 10
10.36555909867967
 20
1.680218539873607
 30
0.23292
 42
0.1521907920671271
  0
SEQEND
  5
379A
330
21F
100
AcDbEntity
  8
BORDER
  0
POLYLINE
  5
223
330
1A
100
AcDbEntity
  8
BORDER
100
AcDb2dPolyline
 66
     1
 10
0.0
 20
0.0
 30
0.23292
 40
0.003423924
 41
0.003423924
  0
VERTEX
  5
379B
330
223
100
AcDbEntity
  8
BORDER
100
AcDbVertex
100
AcDb2dVertex
 10
10.355921385404
 20
1.634716335776515
 30
0.23292
 42
0.1790006504245718
  0
VERTEX
  5
379C
330
223
100
AcDbEntity
  8
BORDER
100
AcDbVertex
100
AcDb2dVertex
 10
10.36854182856266
 20
1.656093988051443
 30
0.23292
 42
0.1790006504245718
  0
SEQEND
  5
379D
330
223
100
AcDbEntity
  8
BORDER
  0
POLYLINE
  5
331F
330
1A
100
AcDbEntity
  8
BORDER
100
AcDb2dPolyline
 66
     1
 10
0.0
 20
0.0
 30
0.0
 40
0.03
 41
0.03
  0
VERTEX
  5
379E
330
331F
100
AcDbEntity
  8
BORDER
100
AcDbVertex
100
AcDb2dVertex
 10
0.2661750000000005
 20
0.2823500000000001
 30
0.0
  0
VERTEX
  5
379F
330
331F
100
AcDbEntity
  8
BORDER
100
AcDbVertex
100
AcDb2dVertex
 10
11.266175
 20
0.2823500000000001
 30
0.0
  0
VERTEX
  5
37A0
330
331F
100
AcDbEntity
  8
BORDER
100
AcDbVertex
100
AcDb2dVertex
 10
11.266175
 20
8.78235
 30
0.0
  0
SEQEND
  5
37A1
330
331F
100
AcDbEntity
  8
BORDER
  0
POLYLINE
  5
3320
330
1A
100
AcDbEntity
  8
BORDER
100
AcDb2dPolyline
 66
     1
 10
0.0
 20
0.0
 30
0.0
 70
     1
 40
0.03
 41
0.03
  0
VERTEX
  5
37A2
330
3320
100
AcDbEntity
  8
BORDER
100
AcDbVertex
100
AcDb2dVertex
 10
11.266175
 20
8.78235
 30
0.0
  0
VERTEX
  5
37A3
330
3320
100
AcDbEntity
  8
BORDER
100
AcDbVertex
100
AcDb2dVertex
 10
0.2661750000000005
 20
8.78235
 30
0.0
  0
SEQEND
  5
37A4
330
3320
100
AcDbEntity
  8
BORDER
  0
POLYLINE
  5
3321
330
1A
100
AcDbEntity
  8
BORDER
100
AcDb2dPolyline
 66
     1
 10
0.0
 20
0.0
 30
0.0
 40
0.03
 41
0.03
  0
VERTEX
  5
37A5
330
3321
100
AcDbEntity
  8
BORDER
100
AcDbVertex
100
AcDb2dVertex
 10
0.2661750000000005
 20
8.78235
 30
0.0
  0
VERTEX
  5
37A6
330
3321
100
AcDbEntity
  8
BORDER
100
AcDbVertex
100
AcDb2dVertex
 10
0.2661750000000005
 20
0.2823500000000001
 30
0.0
  0
SEQEND
  5
37A7
330
3321
100
AcDbEntity
  8
BORDER
  0
TEXT
  5
3346
330
1A
100
AcDbEntity
  8
D1
100
AcDbText
 10
10.72631934616979
 20
8.578798686540201
 30
0.0
 40
0.0468
  1
TC 10/13/03
100
AcDbText
  0
TEXT
  5
334C
330
1A
100
AcDbEntity
  8
BORDER
100
AcDbText
 10
10.75665891536655
 20
8.6957986865402
 30
0.0
 40
0.0468
  1
NAME/DATE:
100
AcDbText
  0
TEXT
  5
3353
330
1A
100
AcDbEntity
  8
D1
100
AcDbText
 10
9.475242121799203
 20
8.582894886575392
 30
0.0
 40
0.0351
  1
INITIAL RELEASE
100
AcDbText
  0
TEXT
  5
3354
330
1A
100
AcDbEntity
  8
BORDER
100
AcDbText
 10
9.782810139768653
 20
8.6957986865402
 30
0.0
 40
0.0468
  1
DESCRIPTION:
100
AcDbText
  0
TEXT
  5
3356
330
1A
100
AcDbEntity
  8
BORDER
100
AcDbText
 10
9.176280794253411
 20
8.6957986865402
 30
0.0
 40
0.0468
  1
REV.#
100
AcDbText
  0
TEXT
  5
3358
330
1A
100
AcDbEntity
  8
D1
100
AcDbText
 10
9.284900396517141
 20
8.578798686540201
 30
0.0
 40
0.0468
  1
A
100
AcDbText
  0
LINE
  5
3451
330
1A
100
AcDbEntity
  8
BORDER
100
AcDbLine
 10
10.52239107287599
 20
0.6832137948435509
 30
0.11646
 11
10.52239107287599
 21
0.4891137948435511
 31
0.11646
  0
LINE
  5
3452
330
1A
100
AcDbEntity
  8
BORDER
100
AcDbLine
 39
0.0075
 10
8.990688857891404
 20
1.181237550649399
 30
0.11646
 11
11.2551888578914
 21
1.181237550649399
 31
0.11646
  0
POLYLINE
  5
3455
330
1A
100
AcDbEntity
  8
BORDER
100
AcDb2dPolyline
 66
     1
 10
0.0
 20
0.0
 30
0.11646
 39
0.0075
 40
0.01
 41
0.01
  0
VERTEX
  5
37AA
330
3455
100
AcDbEntity
  8
BORDER
100
AcDbVertex
100
AcDb2dVertex
 10
8.990688857891404
 20
1.291237550649399
 30
0.11646
  0
VERTEX
  5
37AB
330
3455
100
AcDbEntity
  8
BORDER
100
AcDbVertex
100
AcDb2dVertex
 10
11.2551888578914
 20
1.291237550649399
 30
0.11646
  0
SEQEND
  5
37AC
330
3455
100
AcDbEntity
  8
BORDER
  0
POLYLINE
  5
3456
330
1A
100
AcDbEntity
  8
BORDER
100
AcDb2dPolyline
 66
     1
 10
0.0
 20
0.0
 30
0.11646
 39
0.0075
 40
0.01
 41
0.01
  0
VERTEX
  5
37AD
330
3456
100
AcDbEntity
  8
BORDER
100
AcDbVertex
100
AcDb2dVertex
 10
11.2551888578914
 20
1.181237550649399
 30
0.11646
  0
VERTEX
  5
37AE
330
3456
100
AcDbEntity
  8
BORDER
100
AcDbVertex
100
AcDb2dVertex
 10
8.990688857891404
 20
1.181237550649399
 30
0.11646
  0
SEQEND
  5
37AF
330
3456
100
AcDbEntity
  8
BORDER
  0
POLYLINE
  5
3457
330
1A
100
AcDbEntity
  8
BORDER
100
AcDb2dPolyline
 66
     1
 10
0.0
 20
0.0
 30
0.11646
 39
0.0075
 40
0.01
 41
0.01
  0
VERTEX
  5
37B0
330
3457
100
AcDbEntity
  8
BORDER
100
AcDbVertex
100
AcDb2dVertex
 10
8.990688857891404
 20
1.071413794843551
 30
0.11646
  0
VERTEX
  5
37B1
330
3457
100
AcDbEntity
  8
BORDER
100
AcDbVertex
100
AcDb2dVertex
 10
11.2551888578914
 20
1.071413794843551
 30
0.11646
  0
SEQEND
  5
37B2
330
3457
100
AcDbEntity
  8
BORDER
  0
POLYLINE
  5
3458
330
1A
100
AcDbEntity
  8
BORDER
100
AcDb2dPolyline
 66
     1
 10
0.0
 20
0.0
 30
0.0
 39
0.0075
 40
0.01
 41
0.01
  0
VERTEX
  5
37B3
330
3458
100
AcDbEntity
  8
BORDER
100
AcDbVertex
100
AcDb2dVertex
 10
10.26191636097285
 20
1.071413794843551
 30
0.0
  0
VERTEX
  5
37B4
330
3458
100
AcDbEntity
  8
BORDER
100
AcDbVertex
100
AcDb2dVertex
 10
10.26191636097285
 20
0.8773137948435504
 30
0.0
  0
SEQEND
  5
37B5
330
3458
100
AcDbEntity
  8
BORDER
  0
POLYLINE
  5
3459
330
1A
100
AcDbEntity
  8
BORDER
100
AcDb2dPolyline
 66
     1
 10
0.0
 20
0.0
 30
0.0
 39
0.0075
 40
0.01
 41
0.01
  0
VERTEX
  5
37B6
330
3459
100
AcDbEntity
  8
BORDER
100
AcDbVertex
100
AcDb2dVertex
 10
9.702916360972857
 20
1.071413794843551
 30
0.0
  0
VERTEX
  5
37B7
330
3459
100
AcDbEntity
  8
BORDER
100
AcDbVertex
100
AcDb2dVertex
 10
9.702916360972857
 20
0.8773137948435504
 30
0.0
  0
SEQEND
  5
37B8
330
3459
100
AcDbEntity
  8
BORDER
  0
POLYLINE
  5
345A
330
1A
100
AcDbEntity
  8
BORDER
100
AcDb2dPolyline
 66
     1
 10
0.0
 20
0.0
 30
0.11646
 39
0.0075
 40
0.01
 41
0.01
  0
VERTEX
  5
37B9
330
345A
100
AcDbEntity
  8
BORDER
100
AcDbVertex
100
AcDb2dVertex
 10
8.990688857891404
 20
0.8773137948435504
 30
0.11646
  0
VERTEX
  5
37BA
330
345A
100
AcDbEntity
  8
BORDER
100
AcDbVertex
100
AcDb2dVertex
 10
11.26920067485122
 20
0.8773137948435504
 30
0.11646
  0
SEQEND
  5
37BB
330
345A
100
AcDbEntity
  8
BORDER
  0
POLYLINE
  5
345B
330
1A
100
AcDbEntity
  8
BORDER
100
AcDb2dPolyline
 66
     1
 10
0.0
 20
0.0
 30
0.11646
 39
0.0075
 40
0.01
 41
0.01
  0
VERTEX
  5
37BC
330
345B
100
AcDbEntity
  8
BORDER
100
AcDbVertex
100
AcDb2dVertex
 10
11.26920067485122
 20
0.6832137948435509
 30
0.11646
  0
VERTEX
  5
37BD
330
345B
100
AcDbEntity
  8
BORDER
100
AcDbVertex
100
AcDb2dVertex
 10
8.990688857891404
 20
0.6832137948435509
 30
0.11646
  0
SEQEND
  5
37BE
330
345B
100
AcDbEntity
  8
BORDER
  0
POLYLINE
  5
345C
330
1A
100
AcDbEntity
  8
BORDER
100
AcDb2dPolyline
 66
     1
 10
0.0
 20
0.0
 30
0.11646
 39
0.0075
 40
0.01
 41
0.01
  0
VERTEX
  5
37BF
330
345C
100
AcDbEntity
  8
BORDER
100
AcDbVertex
100
AcDb2dVertex
 10
11.266175
 20
0.4891137948435511
 30
0.11646
  0
VERTEX
  5
37C0
330
345C
100
AcDbEntity
  8
BORDER
100
AcDbVertex
100
AcDb2dVertex
 10
8.990688857891404
 20
0.4891137948435511
 30
0.11646
  0
SEQEND
  5
37C1
330
345C
100
AcDbEntity
  8
BORDER
  0
POLYLINE
  5
345D
330
1A
100
AcDbEntity
  8
BORDER
100
AcDb2dPolyline
 66
     1
 10
0.0
 20
0.0
 30
0.0
 39
0.0075
 40
0.01
 41
0.01
  0
VERTEX
  5
37C2
330
345D
100
AcDbEntity
  8
BORDER
100
AcDbVertex
100
AcDb2dVertex
 10
9.537916360972856
 20
0.6832137948435509
 30
0.0
  0
VERTEX
  5
37C3
330
345D
100
AcDbEntity
  8
BORDER
100
AcDbVertex
100
AcDb2dVertex
 10
9.537916360972856
 20
0.4891137948435511
 30
0.0
  0
SEQEND
  5
37C4
330
345D
100
AcDbEntity
  8
BORDER
  0
POLYLINE
  5
345E
330
1A
100
AcDbEntity
  8
BORDER
100
AcDb2dPolyline
 66
     1
 10
0.0
 20
0.0
 30
0.0
 39
0.0075
 40
0.01
 41
0.01
  0
VERTEX
  5
37C5
330
345E
100
AcDbEntity
  8
BORDER
100
AcDbVertex
100
AcDb2dVertex
 10
9.726547376952984
 20
0.6832137948435509
 30
0.0
  0
VERTEX
  5
37C6
330
345E
100
AcDbEntity
  8
BORDER
100
AcDbVertex
100
AcDb2dVertex
 10
9.726547376952984
 20
0.4891137948435511
 30
0.0
  0
SEQEND
  5
37C7
330
345E
100
AcDbEntity
  8
BORDER
  0
POLYLINE
  5
345F
330
1A
100
AcDbEntity
  8
BORDER
100
AcDb2dPolyline
 66
     1
 10
0.0
 20
0.0
 30
0.11646
 39
0.0075
 40
0.01
 41
0.01
  0
VERTEX
  5
37C8
330
345F
100
AcDbEntity
  8
BORDER
100
AcDbVertex
100
AcDb2dVertex
 10
9.945831594939301
 20
0.6832137948435509
 30
0.11646
  0
VERTEX
  5
37C9
330
345F
100
AcDbEntity
  8
BORDER
100
AcDbVertex
100
AcDb2dVertex
 10
9.945831594939301
 20
0.2823500000000001
 30
0.11646
  0
SEQEND
  5
37CA
330
345F
100
AcDbEntity
  8
BORDER
  0
POLYLINE
  5
3460
330
1A
100
AcDbEntity
  8
BORDER
100
AcDb2dPolyline
 66
     1
 10
0.0
 20
0.0
 30
0.11646
 39
0.0075
 40
0.01
 41
0.01
  0
VERTEX
  5
37CB
330
3460
100
AcDbEntity
  8
BORDER
100
AcDbVertex
100
AcDb2dVertex
 10
10.52239107287599
 20
0.6832137948435509
 30
0.11646
  0
VERTEX
  5
37CC
330
3460
100
AcDbEntity
  8
BORDER
100
AcDbVertex
100
AcDb2dVertex
 10
10.52239107287599
 20
0.4891137948435511
 30
0.11646
  0
SEQEND
  5
37CD
330
3460
100
AcDbEntity
  8
BORDER
  0
TEXT
  5
3461
330
1A
100
AcDbEntity
  8
BORDER
100
AcDbText
 10
10.5491840702082
 20
0.6154438782988123
 30
0.11646
 40
0.04
  1
DRAWING SCALE
100
AcDbText
  0
TEXT
  5
3462
330
1A
100
AcDbEntity
  8
D1
100
AcDbText
 10
10.68674121443013
 20
0.5335396653691502
 30
0.0
 40
0.06
  1
2" = 1"
100
AcDbText
  0
POLYLINE
  5
3496
330
1A
100
AcDbEntity
  8
BORDER
100
AcDb2dPolyline
 66
     1
 10
0.0
 20
0.0
 30
0.0
 40
0.01
 41
0.01
  0
VERTEX
  5
37CE
330
3496
100
AcDbEntity
  8
BORDER
100
AcDbVertex
100
AcDb2dVertex
 10
11.27038407570129
 20
8.194862947394947
 30
0.0
  0
VERTEX
  5
37CF
330
3496
100
AcDbEntity
  8
BORDER
100
AcDbVertex
100
AcDb2dVertex
 10
9.148073863622006
 20
8.194862947394947
 30
0.0
  0
VERTEX
  5
37D0
330
3496
100
AcDbEntity
  8
BORDER
100
AcDbVertex
100
AcDb2dVertex
 10
9.148073863622006
 20
8.779768347037055
 30
0.0
  0
SEQEND
  5
37D1
330
3496
100
AcDbEntity
  8
BORDER
  0
POLYLINE
  5
3497
330
1A
100
AcDbEntity
  8
BORDER
100
AcDb2dPolyline
 66
     1
 10
0.0
 20
0.0
 30
0.0
 40
0.01
 41
0.01
  0
VERTEX
  5
37D2
330
3497
100
AcDbEntity
  8
BORDER
100
AcDbVertex
100
AcDb2dVertex
 10
9.440573863622006
 20
8.779768347037055
 30
0.0
  0
VERTEX
  5
37D3
330
3497
100
AcDbEntity
  8
BORDER
100
AcDbVertex
100
AcDb2dVertex
 10
9.440573863622002
 20
8.194862947394948
 30
0.0
  0
SEQEND
  5
37D4
330
3497
100
AcDbEntity
  8
BORDER
  0
POLYLINE
  5
3498
330
1A
100
AcDbEntity
  8
BORDER
100
AcDb2dPolyline
 66
     1
 10
0.0
 20
0.0
 30
0.0
 40
0.01
 41
0.01
  0
VERTEX
  5
37D5
330
3498
100
AcDbEntity
  8
BORDER
100
AcDbVertex
100
AcDb2dVertex
 10
10.708073863622
 20
8.779768347037055
 30
0.0
  0
VERTEX
  5
37D6
330
3498
100
AcDbEntity
  8
BORDER
100
AcDbVertex
100
AcDb2dVertex
 10
10.708073863622
 20
8.194862947394948
 30
0.0
  0
SEQEND
  5
37D7
330
3498
100
AcDbEntity
  8
BORDER
  0
POLYLINE
  5
3499
330
1A
100
AcDbEntity
  8
BORDER
100
AcDb2dPolyline
 66
     1
 10
0.0
 20
0.0
 30
0.0
 40
0.01
 41
0.01
  0
VERTEX
  5
37D8
330
3499
100
AcDbEntity
  8
BORDER
100
AcDbVertex
100
AcDb2dVertex
 10
11.27038407570129
 20
8.311862947394949
 30
0.0
  0
VERTEX
  5
37D9
330
3499
100
AcDbEntity
  8
BORDER
100
AcDbVertex
100
AcDb2dVertex
 10
9.148073863622006
 20
8.311862947394949
 30
0.0
  0
SEQEND
  5
37DA
330
3499
100
AcDbEntity
  8
BORDER
  0
POLYLINE
  5
349A
330
1A
100
AcDbEntity
  8
BORDER
100
AcDb2dPolyline
 66
     1
 10
0.0
 20
0.0
 30
0.0
 40
0.01
 41
0.01
  0
VERTEX
  5
37DB
330
349A
100
AcDbEntity
  8
BORDER
100
AcDbVertex
100
AcDb2dVertex
 10
11.27038407570129
 20
8.42886294739495
 30
0.0
  0
VERTEX
  5
37DC
330
349A
100
AcDbEntity
  8
BORDER
100
AcDbVertex
100
AcDb2dVertex
 10
9.148073863622006
 20
8.428862947394947
 30
0.0
  0
SEQEND
  5
37DD
330
349A
100
AcDbEntity
  8
BORDER
  0
POLYLINE
  5
349B
330
1A
100
AcDbEntity
  8
BORDER
100
AcDb2dPolyline
 66
     1
 10
0.0
 20
0.0
 30
0.0
 40
0.01
 41
0.01
  0
VERTEX
  5
37DE
330
349B
100
AcDbEntity
  8
BORDER
100
AcDbVertex
100
AcDb2dVertex
 10
11.27038407570129
 20
8.545862947394947
 30
0.0
  0
VERTEX
  5
37DF
330
349B
100
AcDbEntity
  8
BORDER
100
AcDbVertex
100
AcDb2dVertex
 10
9.148073863622006
 20
8.545862947394947
 30
0.0
  0
SEQEND
  5
37E0
330
349B
100
AcDbEntity
  8
BORDER
  0
POLYLINE
  5
349C
330
1A
100
AcDbEntity
  8
BORDER
100
AcDb2dPolyline
 66
     1
 10
0.0
 20
0.0
 30
0.0
 40
0.01
 41
0.01
  0
VERTEX
  5
37E1
330
349C
100
AcDbEntity
  8
BORDER
100
AcDbVertex
100
AcDb2dVertex
 10
11.27038407570129
 20
8.662862947394952
 30
0.0
  0
VERTEX
  5
37E2
330
349C
100
AcDbEntity
  8
BORDER
100
AcDbVertex
100
AcDb2dVertex
 10
9.148073863622006
 20
8.662862947394945
 30
0.0
  0
SEQEND
  5
37E3
330
349C
100
AcDbEntity
  8
BORDER
  0
TEXT
  5
364D
330
1A
100
AcDbEntity
  8
D1
100
AcDbText
 10
10.70085216384555
 20
0.9066535306636914
 30
0.0
 40
0.06
  1
TC
100
AcDbText
  0
LINE
  5
36BC
330
1A
100
AcDbEntity
  8
SHEET1
100
AcDbLine
 39
0.36
 10
4.96646470202366
 20
4.576047197455944
 30
0.0
 11
4.96646470202366
 21
5.088047197455942
 31
0.0
  0
TRACE
  5
36BD
330
1A
100
AcDbEntity
  8
SHEET1
100
AcDbTrace
 10
4.277000267291093
 20
4.487343777567645
 30
0.0
 11
4.247929136756226
 21
4.512750617344241
 31
0.0
 12
4.309830137180544
 22
4.522060227383397
 32
0.0
 13
4.275099266866774
 23
4.538034167528488
 33
0.0
 39
0.36
  0
TRACE
  5
36BE
330
1A
100
AcDbEntity
  8
SHEET1
100
AcDbTrace
 10
2.852464702023659
 20
4.431047197455942
 30
0.0
 11
2.852464702023659
 21
4.469047197455942
 31
0.0
 12
4.093254999020713
 22
4.431047197455942
 32
0.0
 13
4.091674405026605
 23
4.469047197455942
 33
0.0
 39
0.36
  0
TRACE
  5
36BF
330
1A
100
AcDbEntity
  8
SHEET1
100
AcDbTrace
 10
4.219812628562019
 20
4.451593666584384
 30
0.0
 11
4.205116775485301
 21
4.488500728327499
 31
0.0
 12
4.277000267291093
 22
4.487343777567645
 32
0.0
 13
4.247929136756226
 23
4.512750617344241
 33
0.0
 39
0.36
  0
TRACE
  5
36C0
330
1A
100
AcDbEntity
  8
SHEET1
100
AcDbTrace
 10
4.093254999020713
 20
4.431047197455942
 30
0.0
 11
4.091674405026605
 21
4.469047197455942
 31
0.0
 12
4.219812628562019
 22
4.451593666584384
 32
0.0
 13
4.205116775485301
 23
4.488500728327499
 33
0.0
 39
0.36
  0
TRACE
  5
36C1
330
1A
100
AcDbEntity
  8
SHEET1
100
AcDbTrace
 10
4.309830137180544
 20
4.522060227383397
 30
0.0
 11
4.275099266866774
 21
4.538034167528488
 31
0.0
 12
4.321464702023659
 22
4.556963921912744
 32
0.0
 13
4.283464702023659
 23
4.563130472999143
 33
0.0
 39
0.36
  0
TRACE
  5
36C2
330
1A
100
AcDbEntity
  8
SHEET1
100
AcDbTrace
 10
4.321464702023659
 20
4.570047197455943
 30
0.0
 11
4.283464702023659
 21
4.570047197455943
 31
0.0
 12
4.321464702023659
 22
4.576047197455944
 32
0.0
 13
4.283464702023659
 23
4.576047197455944
 33
0.0
 39
0.36
  0
TRACE
  5
36C3
330
1A
100
AcDbEntity
  8
SHEET1
100
AcDbTrace
 10
4.321464702023659
 20
4.556963921912744
 30
0.0
 11
4.283464702023659
 21
4.563130472999143
 31
0.0
 12
4.321464702023659
 22
4.570047197455943
 32
0.0
 13
4.283464702023659
 23
4.570047197455943
 33
0.0
 39
0.36
  0
TRACE
  5
36C4
330
1A
100
AcDbEntity
  8
SHEET1
100
AcDbTrace
 10
4.093254999020713
 20
5.233047197455945
 30
0.0
 11
4.091674405026605
 21
5.195047197455945
 31
0.0
 12
4.219812628562019
 22
5.212500728327501
 32
0.0
 13
4.205116775485301
 23
5.175593666584386
 33
0.0
 39
0.36
  0
TRACE
  5
36C5
330
1A
100
AcDbEntity
  8
SHEET1
100
AcDbTrace
 10
4.219812628562019
 20
5.212500728327501
 30
0.0
 11
4.205116775485301
 21
5.175593666584386
 31
0.0
 12
4.277000267291093
 22
5.176750617344243
 32
0.0
 13
4.247929136756226
 23
5.151343777567646
 33
0.0
 39
0.36
  0
TRACE
  5
36C6
330
1A
100
AcDbEntity
  8
SHEET1
100
AcDbTrace
 10
4.277000267291093
 20
5.176750617344243
 30
0.0
 11
4.247929136756226
 21
5.151343777567646
 31
0.0
 12
4.309830137180544
 22
5.142034167528493
 32
0.0
 13
4.275099266866774
 23
5.126060227383401
 33
0.0
 39
0.36
  0
TRACE
  5
36C7
330
1A
100
AcDbEntity
  8
SHEET1
100
AcDbTrace
 10
2.852464702023659
 20
5.233047197455945
 30
0.0
 11
2.852464702023659
 21
5.195047197455945
 31
0.0
 12
4.093254999020713
 22
5.233047197455945
 32
0.0
 13
4.091674405026605
 23
5.195047197455945
 33
0.0
 39
0.36
  0
TRACE
  5
36C8
330
1A
100
AcDbEntity
  8
SHEET1
100
AcDbTrace
 10
4.309830137180544
 20
5.142034167528493
 30
0.0
 11
4.275099266866774
 21
5.126060227383401
 31
0.0
 12
4.321464702023659
 22
5.107130472999145
 32
0.0
 13
4.283464702023659
 23
5.100963921912747
 33
0.0
 39
0.36
  0
TRACE
  5
36C9
330
1A
100
AcDbEntity
  8
SHEET1
100
AcDbTrace
 10
4.321464702023659
 20
5.107130472999145
 30
0.0
 11
4.283464702023659
 21
5.100963921912747
 31
0.0
 12
4.321464702023659
 22
5.094047197455946
 32
0.0
 13
4.283464702023659
 23
5.094047197455946
 33
0.0
 39
0.36
  0
TRACE
  5
36CA
330
1A
100
AcDbEntity
  8
SHEET1
100
AcDbTrace
 10
4.321464702023659
 20
5.094047197455946
 30
0.0
 11
4.283464702023659
 21
5.094047197455946
 31
0.0
 12
4.321464702023659
 22
5.088047197455946
 32
0.0
 13
4.283464702023659
 23
5.088047197455946
 33
0.0
 39
0.36
  0
LINE
  5
36CB
330
1A
100
AcDbEntity
  8
SHEET1
100
AcDbLine
 39
0.36
 10
5.977503397467431
 20
4.576047197455944
 30
0.0
 11
5.977503397467431
 21
5.088047197455946
 31
0.0
  0
LINE
  5
36CC
330
1A
100
AcDbEntity
  8
SHEET1
100
AcDbLine
 39
0.36
 10
6.489503397467432
 20
4.576047197455944
 30
0.0
 11
6.489503397467432
 21
5.088047197455946
 31
0.0
  0
LINE
  5
36CD
330
1A
100
AcDbEntity
  8
SHEET1
100
AcDbLine
 39
0.36
 10
5.977503397467431
 20
4.576047197455944
 30
0.0
 11
6.489503397467432
 21
4.576047197455944
 31
0.0
  0
LINE
  5
36CE
330
1A
100
AcDbEntity
  8
SHEET1
100
AcDbLine
 39
0.36
 10
5.977503397467431
 20
5.088047197455944
 30
0.0
 11
6.489503397467432
 21
5.088047197455944
 31
0.0
  0
SOLID
  5
36EB
330
1A
100
AcDbEntity
  8
DIM1
100
AcDbTrace
 10
5.801237362966546
 20
5.74700132446111
 30
0.0
 11
5.801237362966546
 21
5.687001324461109
 31
0.0
 12
5.981237362966547
 22
5.71700132446111
 32
0.0
 13
5.981237362966547
 23
5.71700132446111
 33
0.0
  0
LINE
  5
36EC
330
1A
100
AcDbEntity
  8
DIM1
100
AcDbLine
 39
0.18
 10
4.687728033971876
 20
3.497250109487664
 30
0.0
 11
5.582728033971877
 21
3.497250109487664
 31
0.0
  0
LINE
  5
36ED
330
1A
100
AcDbEntity
  8
DIM1
100
AcDbLine
 39
0.18
 10
5.702728033971876
 20
3.467250109487663
 30
0.0
 11
4.557728033971876
 21
3.467250109487663
 31
0.0
  0
TEXT
  5
36EE
330
1A
100
AcDbEntity
  8
DIM1
100
AcDbText
 10
3.227941902082814
 20
6.494852410087492
 30
0.0
 40
0.08
  1
15 +/-10% um @ 100VDC DISPLACEMENT (WITHOUT LOAD)
100
AcDbText
  0
TEXT
  5
36F9
330
1A
100
AcDbEntity
  8
DIM1
100
AcDbText
 10
2.902072431148619
 20
4.238904691389523
 30
0.0
 40
0.07
  1
LEAD LENGTH 100mm
100
AcDbText
  0
TEXT
  5
36FA
330
1A
100
AcDbEntity
  8
DIM1
100
AcDbText
 10
4.812728033971876
 20
3.527250109487663
 30
0.0
 40
0.08
  1
AE0505D18
100
AcDbText
  0
SOLID
  5
3703
330
1A
100
AcDbEntity
  8
DIM1
100
AcDbTrace
 10
3.370169502916633
 20
5.760047519319863
 30
0.0
 11
3.370169502916633
 21
5.700047519319863
 31
0.0
 12
3.550169502916633
 22
5.730047519319863
 32
0.0
 13
3.550169502916633
 23
5.730047519319863
 33
0.0
  0
LINE
  5
3704
330
1A
100
AcDbEntity
  8
DIM1
100
AcDbLine
 10
3.370169502916633
 20
5.730047519319863
 30
0.0
 11
3.190169502916633
 21
5.730047519319863
 31
0.0
  0
SOLID
  5
3705
330
1A
100
AcDbEntity
  8
DIM1
100
AcDbTrace
 10
5.147024337173931
 20
5.760047519319863
 30
0.0
 11
5.147024337173931
 21
5.700047519319863
 31
0.0
 12
4.96702433717393
 22
5.730047519319863
 32
0.0
 13
4.96702433717393
 23
5.730047519319863
 33
0.0
  0
LINE
  5
3706
330
1A
100
AcDbEntity
  8
DIM1
100
AcDbLine
 10
3.550169502916633
 20
5.139547519319862
 30
0.0
 11
3.550169502916633
 21
5.790047519319863
 31
0.0
  0
LINE
  5
3707
330
1A
100
AcDbEntity
  8
DIM1
100
AcDbLine
 10
4.96702433717393
 20
5.139547519319862
 30
0.0
 11
4.96702433717393
 21
5.790047519319863
 31
0.0
  0
TEXT
  5
3708
330
1A
100
AcDbEntity
  8
DIM1
100
AcDbText
 10
4.019288055480104
 20
5.690047519319863
 30
0.0
 40
0.08
  1
18.0mm
 72
     1
 11
4.199288055480104
 21
5.730047519319863
 31
0.0
100
AcDbText
 73
     2
  0
TEXT
  5
3709
330
1A
100
AcDbEntity
  8
DIM1
100
AcDbText
 10
4.172788055480104
 20
5.815047519319863
 30
0.0
 40
0.07
  1
%%P0.05
100
AcDbText
  0
LINE
  5
370A
330
1A
100
AcDbEntity
  8
DIM1
100
AcDbLine
 10
5.147024337173931
 20
5.730047519319863
 30
0.0
 11
5.26702433717393
 21
5.730047519319863
 31
0.0
  0
LINE
  5
370B
330
1A
100
AcDbEntity
  8
DIM1
100
AcDbLine
 10
5.801237362966546
 20
5.71700132446111
 30
0.0
 11
5.681237362966546
 21
5.71700132446111
 31
0.0
  0
TEXT
  5
370C
330
1A
100
AcDbEntity
  8
DIM1
100
AcDbText
 10
6.803208950379898
 20
4.796500263572583
 30
0.0
 40
0.08
  1
6.5mm
 72
     1
 11
6.963208950379899
 21
4.836500263572583
 31
0.0
100
AcDbText
 73
     2
  0
SOLID
  5
3710
330
1A
100
AcDbEntity
  8
DIM1
100
AcDbTrace
 10
6.933208950379899
 20
4.396047197455944
 30
0.0
 11
6.993208950379898
 21
4.396047197455944
 31
0.0
 12
6.963208950379899
 22
4.576047197455944
 32
0.0
 13
6.963208950379899
 23
4.576047197455944
 33
0.0
  0
LINE
  5
3711
330
1A
100
AcDbEntity
  8
DIM1
100
AcDbLine
 10
6.5237089503799
 20
4.576047197455944
 30
0.0
 11
7.023208950379899
 21
4.576047197455944
 31
0.0
  0
LINE
  5
3712
330
1A
100
AcDbEntity
  8
DIM1
100
AcDbLine
 10
6.963208950379899
 20
4.396047197455944
 30
0.0
 11
6.963208950379899
 21
4.216047197455943
 31
0.0
  0
SOLID
  5
3714
330
1A
100
AcDbEntity
  8
DIM1
100
AcDbTrace
 10
6.933208950379901
 20
5.264135260521987
 30
0.0
 11
6.9932089503799
 21
5.264135260521987
 31
0.0
 12
6.963208950379899
 22
5.084135260521987
 32
0.0
 13
6.963208950379899
 23
5.084135260521987
 33
0.0
  0
LINE
  5
3715
330
1A
100
AcDbEntity
  8
DIM1
100
AcDbLine
 10
6.5237089503799
 20
5.084135260521987
 30
0.0
 11
7.023208950379901
 21
5.084135260521987
 31
0.0
  0
TEXT
  5
3716
330
1A
100
AcDbEntity
  8
DIM1
100
AcDbText
 10
6.088915696050751
 20
5.67700132446111
 30
0.0
 40
0.08
  1
6.5mm
 72
     1
 11
6.248915696050751
 21
5.71700132446111
 31
0.0
100
AcDbText
 73
     2
  0
LINE
  5
3717
330
1A
100
AcDbEntity
  8
DIM1
100
AcDbLine
 10
6.489503397467432
 20
5.126501324461109
 30
0.0
 11
6.489503397467432
 21
5.777001324461109
 31
0.0
  0
LINE
  5
3718
330
1A
100
AcDbEntity
  8
DIM1
100
AcDbLine
 10
5.981237362966547
 20
5.126501324461109
 30
0.0
 11
5.981237362966547
 21
5.777001324461109
 31
0.0
  0
LINE
  5
3719
330
1A
100
AcDbEntity
  8
DIM1
100
AcDbLine
 10
6.963208950379899
 20
5.264135260521987
 30
0.0
 11
6.963208950379899
 21
5.444135260521988
 31
0.0
  0
SOLID
  5
371A
330
1A
100
AcDbEntity
  8
DIM1
100
AcDbTrace
 10
6.669503397467432
 20
5.74700132446111
 30
0.0
 11
6.669503397467432
 21
5.687001324461109
 31
0.0
 12
6.489503397467432
 22
5.71700132446111
 32
0.0
 13
6.489503397467432
 23
5.71700132446111
 33
0.0
  0
LINE
  5
371B
330
1A
100
AcDbEntity
  8
DIM1
100
AcDbLine
 10
6.669503397467432
 20
5.71700132446111
 30
0.0
 11
6.849503397467431
 21
5.71700132446111
 31
0.0
  0
LINE
  5
3722
330
1A
100
AcDbEntity
  8
S1
100
AcDbLine
 10
4.96646470202366
 20
5.088047197455943
 30
0.0
 11
4.96646470202366
 21
4.576047197455944
 31
0.0
  0
LINE
  5
3723
330
1A
100
AcDbEntity
  8
S1
100
AcDbLine
 10
3.54946470202366
 20
5.088047197455943
 30
0.0
 11
3.54946470202366
 21
4.576047197455944
 31
0.0
  0
LINE
  5
3724
330
1A
100
AcDbEntity
  8
S1
100
AcDbLine
 10
3.54946470202366
 20
5.088047197455943
 30
0.0
 11
4.96646470202366
 21
5.088047197455943
 31
0.0
  0
LINE
  5
3725
330
1A
100
AcDbEntity
  8
S1
100
AcDbLine
 10
3.54946470202366
 20
4.576047197455944
 30
0.0
 11
4.96646470202366
 21
4.576047197455944
 31
0.0
  0
VIEWPORT
  5
31FC
330
17
100
AcDbEntity
 67
     1
  8
0
100
AcDbViewport
 10
8.157142857142856
 20
5.0971307120085
 30
0.0
 40
16.31428571428571
 41
10.194261424017
 68
     1
 69
     1
1001
ACAD
1000
MVIEW
1002
{
1070
    16
1010
0.0
1020
0.0
1030
0.0
1010
0.0
1020
0.0
1030
1.0
1040
0.0
1040
10.194261424017
1040
8.157142857142856
1040
5.0971307120085
1040
50.0
1040
0.0
1040
0.0
1070
     0
1070
   100
1070
     1
1070
     1
1070
     0
1070
     0
1070
     0
1070
     0
1040
0.0
1040
0.0
1040
0.0
1040
0.005
1040
0.005
1040
1.0
1040
1.0
1070
     0
1002
{
1002
}
1002
}
  0
ENDSEC
  0
SECTION
  2
OBJECTS
  0
DICTIONARY
  5
C
330
0
100
AcDbDictionary
  3
ACAD_GROUP
350
D
  3
ACAD_LAYOUT
350
366B
  3
ACAD_MLINESTYLE
350
E
  3
ACAD_PLOTSETTINGS
350
366C
  3
CONTENTDICTIONARY
350
3316
1001
ACAD
1000
TREAT_AS_HARD
1070
     0
  0
DICTIONARY
  5
3738
330
1A
100
AcDbDictionary
  3
ACAD_LAYOUTSELFREF
350
3739
  0
DICTIONARY
  5
3736
330
17
100
AcDbDictionary
  3
ACAD_LAYOUTSELFREF
350
3737
  0
DICTIONARY
  5
D
102
{ACAD_REACTORS
330
C
102
}
330
C
100
AcDbDictionary
1001
ACAD
1000
TREAT_AS_HARD
1070
     0
  0
DICTIONARY
  5
366B
102
{ACAD_REACTORS
330
C
102
}
330
C
100
AcDbDictionary
1001
ACAD
1000
TREAT_AS_HARD
1070
     0
  0
DICTIONARY
  5
E
102
{ACAD_REACTORS
330
C
102
}
330
C
100
AcDbDictionary
  3
STANDARD
350
13
1001
ACAD
1000
TREAT_AS_HARD
1070
     0
  0
DICTIONARY
  5
366C
102
{ACAD_REACTORS
330
C
102
}
330
C
100
AcDbDictionary
1001
ACAD
1000
TREAT_AS_HARD
1070
     0
  0
DICTIONARY
  5
3316
102
{ACAD_REACTORS
330
C
102
}
330
C
100
AcDbDictionary
1001
CONTENTTABDATA
1070
     7
1000
English Fasteners
1000
C:\Program Files\AutoCAD LT 97\Symbols\eengfast.dwg
1070
     0
1070
     0
1070
     1
1000
Metric Fasteners
1000
C:\Program Files\AutoCAD LT 97\Symbols\emetfast.dwg
1070
     0
1070
     0
1070
     1
1000
Welding
1000
C:\Program Files\AutoCAD LT 97\Symbols\ewelding.dwg
1070
     0
1070
     0
1070
     1
1000
Hyd-Pneu
1000
C:\Program Files\AutoCAD LT 97\Symbols\ehydpneu.dwg
1070
     0
1070
     0
1070
     1
1000
Pipe Fittings
1000
C:\Program Files\AutoCAD LT 97\Symbols\epipefit.dwg
1070
     0
1070
     0
1070
     1
1000
Plant Process
1000
C:\Program Files\AutoCAD LT 97\Symbols\eplntprc.dwg
1070
     0
1070
     0
1070
     1
1000
BLOCKS
1000
C:\BLOCKS
1070
     1
1070
     0
1070
     1
1001
CONTENTCURRENTTAB
1070
     7
1001
ACAD
1000
TREAT_AS_HARD
1070
     0
  0
XRECORD
  5
3739
102
{ACAD_REACTORS
330
3738
102
}
330
3738
100
AcDbXrecord
340
1A
  0
XRECORD
  5
3737
102
{ACAD_REACTORS
330
3736
102
}
330
3736
100
AcDbXrecord
340
17
  0
MLINESTYLE
  5
13
102
{ACAD_REACTORS
330
E
102
}
330
E
100
AcDbMlineStyle
  2
STANDARD
 70
     0
  3

 62
     0
 51
90.0
 52
90.0
 71
     2
 49
0.5
 62
   256
  6
BYLAYER
 49
-0.5
 62
   256
  6
BYLAYER
  0
ENDSEC
  0
EOF
