ISO-10303-21;
HEADER;
FILE_DESCRIPTION (( 'STEP AP203' ),
    '1' );
FILE_NAME ('Web Model 22236_22238.step',
    '2022-06-22T15:37:05',
    ( '' ),
    ( '' ),
    'SwSTEP 2.0',
    'SolidWorks 2021',
    '' );
FILE_SCHEMA (( 'CONFIG_CONTROL_DESIGN' ));
ENDSEC;

DATA;
#1 = LOCAL_TIME ( 11, 37, 5.000000000000000000, #14 ) ;
#2 = CYLINDRICAL_SURFACE ( 'NONE', #18, 12.50000000000000000 ) ;
#3 = ADVANCED_FACE ( 'NONE', ( #81 ), #11, .T. ) ;
#4 = DIRECTION ( 'NONE',  ( 1.000000000000000000, 0.000000000000000000, 0.000000000000000000 ) ) ;
#5 = CARTESIAN_POINT ( 'NONE',  ( 0.000000000000000000, 0.000000000000000000, 0.000000000000000000 ) ) ;
#6 = APPROVAL ( #88, 'UNSPECIFIED' ) ;
#7 = CALENDAR_DATE ( 2022, 22, 6 ) ;
#8 = CC_DESIGN_PERSON_AND_ORGANIZATION_ASSIGNMENT ( #82, #133, ( #73 ) ) ;
#9 = EDGE_LOOP ( 'NONE', ( #50, #13, #131, #98 ) ) ;
#10 = APPROVAL ( #85, 'UNSPECIFIED' ) ;
#11 = CYLINDRICAL_SURFACE ( 'NONE', #58, 12.50000000000000000 ) ;
#12 = CC_DESIGN_DATE_AND_TIME_ASSIGNMENT ( #111, #27, ( #160 ) ) ;
#13 = ORIENTED_EDGE ( 'NONE', *, *, #97, .T. ) ;
#14 = COORDINATED_UNIVERSAL_TIME_OFFSET ( 5, 0, .BEHIND. ) ;
#15 = ADVANCED_BREP_SHAPE_REPRESENTATION ( 'Web Model 22236_22238', ( #56, #129 ), #138 ) ;
#16 = PLANE ( 'NONE',  #22 ) ;
#17 = PERSON_AND_ORGANIZATION_ROLE ( 'classification_officer' ) ;
#18 = AXIS2_PLACEMENT_3D ( 'NONE', #121, #108, #122 ) ;
#19 = APPROVAL_ROLE ( '' ) ;
#20 = CALENDAR_DATE ( 2022, 22, 6 ) ;
#21 = CALENDAR_DATE ( 2022, 22, 6 ) ;
#22 = AXIS2_PLACEMENT_3D ( 'NONE', #42, #136, #39 ) ;
#23 = EDGE_LOOP ( 'NONE', ( #130, #37, #94, #106 ) ) ;
#24 = EDGE_LOOP ( 'NONE', ( #159, #38 ) ) ;
#25 = APPROVAL_DATE_TIME ( #52, #6 ) ;
#26 = COORDINATED_UNIVERSAL_TIME_OFFSET ( 5, 0, .BEHIND. ) ;
#27 = DATE_TIME_ROLE ( 'classification_date' ) ;
#28 = FACE_OUTER_BOUND ( 'NONE', #79, .T. ) ;
#29 = VECTOR ( 'NONE', #33, 1000.000000000000000 ) ;
#30 = PERSON_AND_ORGANIZATION ( #48, #154 ) ;
#31 = PERSON_AND_ORGANIZATION ( #48, #154 ) ;
#32 = CC_DESIGN_PERSON_AND_ORGANIZATION_ASSIGNMENT ( #153, #83, ( #54 ) ) ;
#33 = DIRECTION ( 'NONE',  ( -0.000000000000000000, -0.000000000000000000, -1.000000000000000000 ) ) ;
#34 = PRODUCT_DEFINITION_SHAPE ( 'NONE', 'NONE',  #73 ) ;
#35 = LINE ( 'NONE', #49, #143 ) ;
#36 = LOCAL_TIME ( 11, 37, 5.000000000000000000, #74 ) ;
#37 = ORIENTED_EDGE ( 'NONE', *, *, #55, .F. ) ;
#38 = ORIENTED_EDGE ( 'NONE', *, *, #65, .F. ) ;
#39 = DIRECTION ( 'NONE',  ( 1.000000000000000000, 0.000000000000000000, -0.000000000000000000 ) ) ;
#40 = APPLICATION_PROTOCOL_DEFINITION ( 'international standard', 'config_control_design', 1994, #157 ) ;
#41 = APPROVAL_DATE_TIME ( #141, #43 ) ;
#42 = CARTESIAN_POINT ( 'NONE',  ( 0.000000000000000000, 0.000000000000000000, 0.2099999999999999922 ) ) ;
#43 = APPROVAL ( #46, 'UNSPECIFIED' ) ;
#44 = DATE_AND_TIME ( #84, #47 ) ;
#45 = CARTESIAN_POINT ( 'NONE',  ( 0.000000000000000000, 0.000000000000000000, 0.000000000000000000 ) ) ;
#46 = APPROVAL_STATUS ( 'not_yet_approved' ) ;
#47 = LOCAL_TIME ( 11, 37, 5.000000000000000000, #26 ) ;
#48 = PERSON ( 'UNSPECIFIED', 'UNSPECIFIED', 'UNSPECIFIED', ('UNSPECIFIED'), ('UNSPECIFIED'), ('UNSPECIFIED') ) ;
#49 = CARTESIAN_POINT ( 'NONE',  ( -12.50000000000000000, 0.000000000000000000, 0.2099999999999999922 ) ) ;
#50 = ORIENTED_EDGE ( 'NONE', *, *, #118, .F. ) ;
#51 = AXIS2_PLACEMENT_3D ( 'NONE', #5, #110, #86 ) ;
#52 = DATE_AND_TIME ( #20, #1 ) ;
#53 = COORDINATED_UNIVERSAL_TIME_OFFSET ( 5, 0, .BEHIND. ) ;
#54 = PRODUCT ( 'Web Model 22236_22238', 'Web Model 22236_22238', '', ( #148 ) ) ;
#55 = EDGE_CURVE ( 'NONE', #115, #63, #162, .T. ) ;
#56 = MANIFOLD_SOLID_BREP ( 'Boss-Extrude1', #107 ) ;
#57 = DATE_TIME_ROLE ( 'creation_date' ) ;
#58 = AXIS2_PLACEMENT_3D ( 'NONE', #66, #175, #117 ) ;
#59 = CC_DESIGN_SECURITY_CLASSIFICATION ( #160, ( #67 ) ) ;
#60 = ORIENTED_EDGE ( 'NONE', *, *, #55, .T. ) ;
#61 = DIRECTION ( 'NONE',  ( 0.000000000000000000, 0.000000000000000000, 1.000000000000000000 ) ) ;
#62 = LINE ( 'NONE', #155, #29 ) ;
#63 = VERTEX_POINT ( 'NONE', #174 ) ;
#64 = DIRECTION ( 'NONE',  ( 1.000000000000000000, 0.000000000000000000, 0.000000000000000000 ) ) ;
#65 = EDGE_CURVE ( 'NONE', #132, #173, #169, .T. ) ;
#66 = CARTESIAN_POINT ( 'NONE',  ( 0.000000000000000000, 0.000000000000000000, 0.2099999999999999922 ) ) ;
#67 = PRODUCT_DEFINITION_FORMATION_WITH_SPECIFIED_SOURCE ( 'ANY', '', #54, .NOT_KNOWN. ) ;
#68 = PLANE ( 'NONE',  #51 ) ;
#69 = FACE_OUTER_BOUND ( 'NONE', #9, .T. ) ;
#70 = CARTESIAN_POINT ( 'NONE',  ( 12.50000000000000000, 1.530808498934191521E-15, 0.000000000000000000 ) ) ;
#71 = COORDINATED_UNIVERSAL_TIME_OFFSET ( 5, 0, .BEHIND. ) ;
#72 = DIRECTION ( 'NONE',  ( 0.000000000000000000, 0.000000000000000000, 1.000000000000000000 ) ) ;
#73 = PRODUCT_DEFINITION ( 'UNKNOWN', '', #67, #171 ) ;
#74 = COORDINATED_UNIVERSAL_TIME_OFFSET ( 5, 0, .BEHIND. ) ;
#75 = PERSON_AND_ORGANIZATION_ROLE ( 'design_supplier' ) ;
#76 = LOCAL_TIME ( 11, 37, 5.000000000000000000, #71 ) ;
#77 = DIRECTION ( 'NONE',  ( 1.000000000000000000, 0.000000000000000000, 0.000000000000000000 ) ) ;
#78 = APPROVAL_PERSON_ORGANIZATION ( #30, #6, #101 ) ;
#79 = EDGE_LOOP ( 'NONE', ( #60, #80 ) ) ;
#80 = ORIENTED_EDGE ( 'NONE', *, *, #118, .T. ) ;
#81 = FACE_OUTER_BOUND ( 'NONE', #23, .T. ) ;
#82 = PERSON_AND_ORGANIZATION ( #48, #154 ) ;
#83 = PERSON_AND_ORGANIZATION_ROLE ( 'design_owner' ) ;
#84 = CALENDAR_DATE ( 2022, 22, 6 ) ;
#85 = APPROVAL_STATUS ( 'not_yet_approved' ) ;
#86 = DIRECTION ( 'NONE',  ( 1.000000000000000000, 0.000000000000000000, -0.000000000000000000 ) ) ;
#87 = CIRCLE ( 'NONE', #104, 12.50000000000000000 ) ;
#88 = APPROVAL_STATUS ( 'not_yet_approved' ) ;
#89 = APPROVAL_PERSON_ORGANIZATION ( #167, #10, #137 ) ;
#90 = CC_DESIGN_PERSON_AND_ORGANIZATION_ASSIGNMENT ( #31, #152, ( #67 ) ) ;
#91 = CARTESIAN_POINT ( 'NONE',  ( -12.50000000000000000, 0.000000000000000000, 0.2099999999999999922 ) ) ;
#92 = DIRECTION ( 'NONE',  ( 1.000000000000000000, 0.000000000000000000, 0.000000000000000000 ) ) ;
#93 = APPROVAL_PERSON_ORGANIZATION ( #163, #43, #19 ) ;
#94 = ORIENTED_EDGE ( 'NONE', *, *, #112, .T. ) ;
#95 = CARTESIAN_POINT ( 'NONE',  ( 0.000000000000000000, 0.000000000000000000, 0.2099999999999999922 ) ) ;
#96 = DIRECTION ( 'NONE',  ( 0.000000000000000000, 0.000000000000000000, 1.000000000000000000 ) ) ;
#97 = EDGE_CURVE ( 'NONE', #63, #132, #62, .T. ) ;
#98 = ORIENTED_EDGE ( 'NONE', *, *, #112, .F. ) ;
#99 = AXIS2_PLACEMENT_3D ( 'NONE', #158, #61, #77 ) ;
#100 = UNCERTAINTY_MEASURE_WITH_UNIT (LENGTH_MEASURE( 1.000000000000000082E-05 ), #139, 'distance_accuracy_value', 'NONE');
#101 = APPROVAL_ROLE ( '' ) ;
#102 = SECURITY_CLASSIFICATION_LEVEL ( 'unclassified' ) ;
#103 = CARTESIAN_POINT ( 'NONE',  ( -12.50000000000000000, 0.000000000000000000, 0.000000000000000000 ) ) ;
#104 = AXIS2_PLACEMENT_3D ( 'NONE', #142, #170, #92 ) ;
#105 = SHAPE_DEFINITION_REPRESENTATION ( #34, #15 ) ;
#106 = ORIENTED_EDGE ( 'NONE', *, *, #156, .T. ) ;
#107 = CLOSED_SHELL ( 'NONE', ( #140, #3, #127, #172 ) ) ;
#108 = DIRECTION ( 'NONE',  ( -0.000000000000000000, -0.000000000000000000, -1.000000000000000000 ) ) ;
#109 = DIRECTION ( 'NONE',  ( 1.000000000000000000, 0.000000000000000000, 0.000000000000000000 ) ) ;
#110 = DIRECTION ( 'NONE',  ( 0.000000000000000000, 0.000000000000000000, 1.000000000000000000 ) ) ;
#111 = DATE_AND_TIME ( #7, #168 ) ;
#112 = EDGE_CURVE ( 'NONE', #115, #173, #35, .T. ) ;
#113 = AXIS2_PLACEMENT_3D ( 'NONE', #149, #72, #109 ) ;
#114 = APPROVAL_DATE_TIME ( #165, #10 ) ;
#115 = VERTEX_POINT ( 'NONE', #91 ) ;
#116 = CIRCLE ( 'NONE', #113, 12.50000000000000000 ) ;
#117 = DIRECTION ( 'NONE',  ( -1.000000000000000000, 0.000000000000000000, 0.000000000000000000 ) ) ;
#118 = EDGE_CURVE ( 'NONE', #63, #115, #87, .T. ) ;
#119 = FACE_OUTER_BOUND ( 'NONE', #24, .T. ) ;
#120 = CC_DESIGN_APPROVAL ( #6, ( #73 ) ) ;
#121 = CARTESIAN_POINT ( 'NONE',  ( 0.000000000000000000, 0.000000000000000000, 0.2099999999999999922 ) ) ;
#122 = DIRECTION ( 'NONE',  ( -1.000000000000000000, 0.000000000000000000, 0.000000000000000000 ) ) ;
#123 =( NAMED_UNIT ( * ) SI_UNIT ( $, .STERADIAN. ) SOLID_ANGLE_UNIT ( ) );
#124 = CALENDAR_DATE ( 2022, 22, 6 ) ;
#125 = APPLICATION_CONTEXT ( 'configuration controlled 3d designs of mechanical parts and assemblies' ) ;
#126 = PERSON_AND_ORGANIZATION ( #48, #154 ) ;
#127 = ADVANCED_FACE ( 'NONE', ( #28 ), #16, .T. ) ;
#128 = DIRECTION ( 'NONE',  ( -0.000000000000000000, -0.000000000000000000, -1.000000000000000000 ) ) ;
#129 = AXIS2_PLACEMENT_3D ( 'NONE', #45, #96, #4 ) ;
#130 = ORIENTED_EDGE ( 'NONE', *, *, #97, .F. ) ;
#131 = ORIENTED_EDGE ( 'NONE', *, *, #65, .T. ) ;
#132 = VERTEX_POINT ( 'NONE', #70 ) ;
#133 = PERSON_AND_ORGANIZATION_ROLE ( 'creator' ) ;
#134 = CC_DESIGN_PERSON_AND_ORGANIZATION_ASSIGNMENT ( #150, #17, ( #160 ) ) ;
#135 = CC_DESIGN_APPROVAL ( #10, ( #160 ) ) ;
#136 = DIRECTION ( 'NONE',  ( 0.000000000000000000, 0.000000000000000000, 1.000000000000000000 ) ) ;
#137 = APPROVAL_ROLE ( '' ) ;
#138 =( GEOMETRIC_REPRESENTATION_CONTEXT ( 3 ) GLOBAL_UNCERTAINTY_ASSIGNED_CONTEXT ( ( #100 ) ) GLOBAL_UNIT_ASSIGNED_CONTEXT ( ( #139, #166, #123 ) ) REPRESENTATION_CONTEXT ( 'NONE', 'WORKASPACE' ) );
#139 =( LENGTH_UNIT ( ) NAMED_UNIT ( * ) SI_UNIT ( .MILLI., .METRE. ) );
#140 = ADVANCED_FACE ( 'NONE', ( #69 ), #2, .T. ) ;
#141 = DATE_AND_TIME ( #21, #36 ) ;
#142 = CARTESIAN_POINT ( 'NONE',  ( 0.000000000000000000, 0.000000000000000000, 0.2099999999999999922 ) ) ;
#143 = VECTOR ( 'NONE', #128, 1000.000000000000000 ) ;
#144 = CC_DESIGN_DATE_AND_TIME_ASSIGNMENT ( #44, #57, ( #73 ) ) ;
#145 = AXIS2_PLACEMENT_3D ( 'NONE', #95, #146, #64 ) ;
#146 = DIRECTION ( 'NONE',  ( 0.000000000000000000, 0.000000000000000000, 1.000000000000000000 ) ) ;
#147 = CC_DESIGN_APPROVAL ( #43, ( #67 ) ) ;
#148 = MECHANICAL_CONTEXT ( 'NONE', #125, 'mechanical' ) ;
#149 = CARTESIAN_POINT ( 'NONE',  ( 0.000000000000000000, 0.000000000000000000, 0.000000000000000000 ) ) ;
#150 = PERSON_AND_ORGANIZATION ( #48, #154 ) ;
#151 = PRODUCT_RELATED_PRODUCT_CATEGORY ( 'detail', '', ( #54 ) ) ;
#152 = PERSON_AND_ORGANIZATION_ROLE ( 'creator' ) ;
#153 = PERSON_AND_ORGANIZATION ( #48, #154 ) ;
#154 = ORGANIZATION ( 'UNSPECIFIED', 'UNSPECIFIED', '' ) ;
#155 = CARTESIAN_POINT ( 'NONE',  ( 12.50000000000000000, 1.530808498934191521E-15, 0.2099999999999999922 ) ) ;
#156 = EDGE_CURVE ( 'NONE', #173, #132, #116, .T. ) ;
#157 = APPLICATION_CONTEXT ( 'configuration controlled 3d designs of mechanical parts and assemblies' ) ;
#158 = CARTESIAN_POINT ( 'NONE',  ( 0.000000000000000000, 0.000000000000000000, 0.000000000000000000 ) ) ;
#159 = ORIENTED_EDGE ( 'NONE', *, *, #156, .F. ) ;
#160 = SECURITY_CLASSIFICATION ( '', '', #102 ) ;
#161 = APPLICATION_PROTOCOL_DEFINITION ( 'international standard', 'config_control_design', 1994, #125 ) ;
#162 = CIRCLE ( 'NONE', #145, 12.50000000000000000 ) ;
#163 = PERSON_AND_ORGANIZATION ( #48, #154 ) ;
#164 = CC_DESIGN_PERSON_AND_ORGANIZATION_ASSIGNMENT ( #126, #75, ( #67 ) ) ;
#165 = DATE_AND_TIME ( #124, #76 ) ;
#166 =( NAMED_UNIT ( * ) PLANE_ANGLE_UNIT ( ) SI_UNIT ( $, .RADIAN. ) );
#167 = PERSON_AND_ORGANIZATION ( #48, #154 ) ;
#168 = LOCAL_TIME ( 11, 37, 5.000000000000000000, #53 ) ;
#169 = CIRCLE ( 'NONE', #99, 12.50000000000000000 ) ;
#170 = DIRECTION ( 'NONE',  ( 0.000000000000000000, 0.000000000000000000, 1.000000000000000000 ) ) ;
#171 = DESIGN_CONTEXT ( 'detailed design', #157, 'design' ) ;
#172 = ADVANCED_FACE ( 'NONE', ( #119 ), #68, .F. ) ;
#173 = VERTEX_POINT ( 'NONE', #103 ) ;
#174 = CARTESIAN_POINT ( 'NONE',  ( 12.50000000000000000, 1.530808498934191521E-15, 0.2099999999999999922 ) ) ;
#175 = DIRECTION ( 'NONE',  ( -0.000000000000000000, -0.000000000000000000, -1.000000000000000000 ) ) ;
ENDSEC;
END-ISO-10303-21;
