ISO-10303-21;
HEADER;
FILE_DESCRIPTION (( 'STEP AP203' ),
    '1' );
FILE_NAME ('Web Model 66199.STEP',
    '2017-01-31T19:36:45',
    ( '' ),
    ( '' ),
    'SwSTEP 2.0',
    'SolidWorks 2016',
    '' );
FILE_SCHEMA (( 'CONFIG_CONTROL_DESIGN' ));
ENDSEC;

DATA;
#1 = CARTESIAN_POINT ( 'NONE',  ( 0.0000000000000000000, 0.0000000000000000000, 0.0000000000000000000 ) ) ;
#2 = CC_DESIGN_APPROVAL ( #121, ( #165 ) ) ;
#3 = COORDINATED_UNIVERSAL_TIME_OFFSET ( 5, 0, .BEHIND. ) ;
#4 = ORIENTED_EDGE ( 'NONE', *, *, #24, .F. ) ;
#5 = COORDINATED_UNIVERSAL_TIME_OFFSET ( 5, 0, .BEHIND. ) ;
#6 = FACE_OUTER_BOUND ( 'NONE', #175, .T. ) ;
#7 = PRODUCT_DEFINITION_FORMATION_WITH_SPECIFIED_SOURCE ( 'ANY', '', #48, .NOT_KNOWN. ) ;
#8 = DIRECTION ( 'NONE',  ( -1.000000000000000000, 0.0000000000000000000, 0.0000000000000000000 ) ) ;
#9 = DIRECTION ( 'NONE',  ( 1.000000000000000000, 0.0000000000000000000, -0.0000000000000000000 ) ) ;
#10 = DIRECTION ( 'NONE',  ( 1.000000000000000000, 0.0000000000000000000, 0.0000000000000000000 ) ) ;
#11 = DIRECTION ( 'NONE',  ( -0.0000000000000000000, -0.0000000000000000000, -1.000000000000000000 ) ) ;
#12 = APPROVAL_DATE_TIME ( #101, #153 ) ;
#13 = PERSON_AND_ORGANIZATION ( #110, #145 ) ;
#14 = CC_DESIGN_PERSON_AND_ORGANIZATION_ASSIGNMENT ( #60, #97, ( #48 ) ) ;
#15 = EDGE_LOOP ( 'NONE', ( #52, #4, #18, #36 ) ) ;
#16 = APPROVAL_STATUS ( 'not_yet_approved' ) ;
#17 = PRODUCT_DEFINITION ( 'UNKNOWN', '', #7, #135 ) ;
#18 = ORIENTED_EDGE ( 'NONE', *, *, #45, .T. ) ;
#19 = LOCAL_TIME ( 14, 36, 45.00000000000000000, #160 ) ;
#20 = CC_DESIGN_APPROVAL ( #153, ( #7 ) ) ;
#21 = PERSON_AND_ORGANIZATION ( #110, #145 ) ;
#22 = EDGE_LOOP ( 'NONE', ( #129, #122 ) ) ;
#23 = APPROVAL_PERSON_ORGANIZATION ( #13, #150, #86 ) ;
#24 = EDGE_CURVE ( 'NONE', #137, #109, #99, .T. ) ;
#25 = CARTESIAN_POINT ( 'NONE',  ( 0.0000000000000000000, 0.0000000000000000000, 0.2000000000000000100 ) ) ;
#26 = FACE_OUTER_BOUND ( 'NONE', #116, .T. ) ;
#27 = CARTESIAN_POINT ( 'NONE',  ( -25.00000000000000000, 0.0000000000000000000, 0.2000000000000000100 ) ) ;
#28 = CALENDAR_DATE ( 2017, 31, 1 ) ;
#29 = DIRECTION ( 'NONE',  ( 1.000000000000000000, 0.0000000000000000000, 0.0000000000000000000 ) ) ;
#30 = MANIFOLD_SOLID_BREP ( 'Extrude1', #148 ) ;
#31 = CC_DESIGN_PERSON_AND_ORGANIZATION_ASSIGNMENT ( #21, #149, ( #165 ) ) ;
#32 = DIRECTION ( 'NONE',  ( 1.000000000000000000, 0.0000000000000000000, 0.0000000000000000000 ) ) ;
#33 = PERSON_AND_ORGANIZATION_ROLE ( 'creator' ) ;
#34 = CALENDAR_DATE ( 2017, 31, 1 ) ;
#35 = CC_DESIGN_DATE_AND_TIME_ASSIGNMENT ( #87, #81, ( #165 ) ) ;
#36 = ORIENTED_EDGE ( 'NONE', *, *, #69, .T. ) ;
#37 = LOCAL_TIME ( 14, 36, 45.00000000000000000, #3 ) ;
#38 = CC_DESIGN_APPROVAL ( #150, ( #17 ) ) ;
#39 = APPROVAL_PERSON_ORGANIZATION ( #57, #153, #106 ) ;
#40 = DATE_AND_TIME ( #75, #92 ) ;
#41 = CARTESIAN_POINT ( 'NONE',  ( 0.0000000000000000000, 0.0000000000000000000, 0.2000000000000000100 ) ) ;
#42 = AXIS2_PLACEMENT_3D ( 'NONE', #53, #64, #65 ) ;
#43 = DATE_AND_TIME ( #171, #37 ) ;
#44 = CC_DESIGN_DATE_AND_TIME_ASSIGNMENT ( #40, #118, ( #17 ) ) ;
#45 = EDGE_CURVE ( 'NONE', #137, #132, #102, .T. ) ;
#46 = PERSON_AND_ORGANIZATION ( #110, #145 ) ;
#47 = AXIS2_PLACEMENT_3D ( 'NONE', #105, #11, #8 ) ;
#48 = PRODUCT ( 'Web Model 66199', 'Web Model 66199', '', ( #96 ) ) ;
#49 = ORIENTED_EDGE ( 'NONE', *, *, #124, .T. ) ;
#50 = SHAPE_DEFINITION_REPRESENTATION ( #166, #168 ) ;
#51 = PRODUCT_RELATED_PRODUCT_CATEGORY ( 'detail', '', ( #48 ) ) ;
#52 = ORIENTED_EDGE ( 'NONE', *, *, #112, .F. ) ;
#53 = CARTESIAN_POINT ( 'NONE',  ( 0.0000000000000000000, 0.0000000000000000000, 0.0000000000000000000 ) ) ;
#54 = CC_DESIGN_PERSON_AND_ORGANIZATION_ASSIGNMENT ( #114, #33, ( #7 ) ) ;
#55 = DIRECTION ( 'NONE',  ( -0.0000000000000000000, -0.0000000000000000000, -1.000000000000000000 ) ) ;
#56 =( NAMED_UNIT ( * ) SI_UNIT ( $, .STERADIAN. ) SOLID_ANGLE_UNIT ( ) );
#57 = PERSON_AND_ORGANIZATION ( #110, #145 ) ;
#58 = CIRCLE ( 'NONE', #59, 25.00000000000000000 ) ;
#59 = AXIS2_PLACEMENT_3D ( 'NONE', #94, #156, #104 ) ;
#60 = PERSON_AND_ORGANIZATION ( #110, #145 ) ;
#61 = LOCAL_TIME ( 14, 36, 45.00000000000000000, #5 ) ;
#62 = VECTOR ( 'NONE', #55, 1000.000000000000000 ) ;
#63 = CIRCLE ( 'NONE', #42, 25.00000000000000000 ) ;
#64 = DIRECTION ( 'NONE',  ( 0.0000000000000000000, 0.0000000000000000000, 1.000000000000000000 ) ) ;
#65 = DIRECTION ( 'NONE',  ( 1.000000000000000000, 0.0000000000000000000, 0.0000000000000000000 ) ) ;
#66 = ORIENTED_EDGE ( 'NONE', *, *, #124, .F. ) ;
#67 = APPLICATION_PROTOCOL_DEFINITION ( 'international standard', 'config_control_design', 1994, #136 ) ;
#68 =( LENGTH_UNIT ( ) NAMED_UNIT ( * ) SI_UNIT ( .MILLI., .METRE. ) );
#69 = EDGE_CURVE ( 'NONE', #132, #167, #63, .T. ) ;
#70 = PERSON_AND_ORGANIZATION_ROLE ( 'design_supplier' ) ;
#71 = PERSON_AND_ORGANIZATION ( #110, #145 ) ;
#72 = ADVANCED_FACE ( 'NONE', ( #26 ), #142, .F. ) ;
#73 = CC_DESIGN_SECURITY_CLASSIFICATION ( #165, ( #7 ) ) ;
#74 = FACE_OUTER_BOUND ( 'NONE', #22, .T. ) ;
#75 = CALENDAR_DATE ( 2017, 31, 1 ) ;
#76 = AXIS2_PLACEMENT_3D ( 'NONE', #41, #127, #131 ) ;
#77 = LOCAL_TIME ( 14, 36, 45.00000000000000000, #144 ) ;
#78 = DIRECTION ( 'NONE',  ( 0.0000000000000000000, 0.0000000000000000000, 1.000000000000000000 ) ) ;
#79 = PLANE ( 'NONE',  #76 ) ;
#80 = LINE ( 'NONE', #154, #90 ) ;
#81 = DATE_TIME_ROLE ( 'classification_date' ) ;
#82 = APPROVAL_STATUS ( 'not_yet_approved' ) ;
#83 = APPROVAL_ROLE ( '' ) ;
#84 = ORIENTED_EDGE ( 'NONE', *, *, #112, .T. ) ;
#85 = ADVANCED_FACE ( 'NONE', ( #6 ), #164, .T. ) ;
#86 = APPROVAL_ROLE ( '' ) ;
#87 = DATE_AND_TIME ( #28, #61 ) ;
#88 = ORIENTED_EDGE ( 'NONE', *, *, #45, .F. ) ;
#89 = EDGE_CURVE ( 'NONE', #109, #137, #58, .T. ) ;
#90 = VECTOR ( 'NONE', #172, 1000.000000000000000 ) ;
#91 = DIRECTION ( 'NONE',  ( -1.000000000000000000, 0.0000000000000000000, 0.0000000000000000000 ) ) ;
#92 = LOCAL_TIME ( 14, 36, 45.00000000000000000, #108 ) ;
#93 = CYLINDRICAL_SURFACE ( 'NONE', #47, 25.00000000000000000 ) ;
#94 = CARTESIAN_POINT ( 'NONE',  ( 0.0000000000000000000, 0.0000000000000000000, 0.2000000000000000100 ) ) ;
#95 = AXIS2_PLACEMENT_3D ( 'NONE', #1, #174, #29 ) ;
#96 = MECHANICAL_CONTEXT ( 'NONE', #136, 'mechanical' ) ;
#97 = PERSON_AND_ORGANIZATION_ROLE ( 'design_owner' ) ;
#98 = PERSON_AND_ORGANIZATION ( #110, #145 ) ;
#99 = CIRCLE ( 'NONE', #163, 25.00000000000000000 ) ;
#100 = ADVANCED_FACE ( 'NONE', ( #74 ), #79, .T. ) ;
#101 = DATE_AND_TIME ( #34, #77 ) ;
#102 = LINE ( 'NONE', #125, #62 ) ;
#103 = CARTESIAN_POINT ( 'NONE',  ( 25.00000000000000000, 3.061616997868383000E-015, 0.0000000000000000000 ) ) ;
#104 = DIRECTION ( 'NONE',  ( 1.000000000000000000, 0.0000000000000000000, 0.0000000000000000000 ) ) ;
#105 = CARTESIAN_POINT ( 'NONE',  ( 0.0000000000000000000, 0.0000000000000000000, 0.2000000000000000100 ) ) ;
#106 = APPROVAL_ROLE ( '' ) ;
#107 = AXIS2_PLACEMENT_3D ( 'NONE', #170, #78, #9 ) ;
#108 = COORDINATED_UNIVERSAL_TIME_OFFSET ( 5, 0, .BEHIND. ) ;
#109 = VERTEX_POINT ( 'NONE', #152 ) ;
#110 = PERSON ( 'UNSPECIFIED', 'UNSPECIFIED', 'UNSPECIFIED', ('UNSPECIFIED'), ('UNSPECIFIED'), ('UNSPECIFIED') ) ;
#111 = CC_DESIGN_PERSON_AND_ORGANIZATION_ASSIGNMENT ( #46, #70, ( #7 ) ) ;
#112 = EDGE_CURVE ( 'NONE', #109, #167, #80, .T. ) ;
#113 = CARTESIAN_POINT ( 'NONE',  ( -25.00000000000000000, 0.0000000000000000000, 0.0000000000000000000 ) ) ;
#114 = PERSON_AND_ORGANIZATION ( #110, #145 ) ;
#115 = CC_DESIGN_PERSON_AND_ORGANIZATION_ASSIGNMENT ( #71, #133, ( #17 ) ) ;
#116 = EDGE_LOOP ( 'NONE', ( #140, #66 ) ) ;
#117 = ADVANCED_FACE ( 'NONE', ( #123 ), #93, .T. ) ;
#118 = DATE_TIME_ROLE ( 'creation_date' ) ;
#119 = APPLICATION_CONTEXT ( 'configuration controlled 3d designs of mechanical parts and assemblies' ) ;
#120 = AXIS2_PLACEMENT_3D ( 'NONE', #169, #130, #91 ) ;
#121 = APPROVAL ( #158, 'UNSPECIFIED' ) ;
#122 = ORIENTED_EDGE ( 'NONE', *, *, #89, .T. ) ;
#123 = FACE_OUTER_BOUND ( 'NONE', #15, .T. ) ;
#124 = EDGE_CURVE ( 'NONE', #167, #132, #162, .T. ) ;
#125 = CARTESIAN_POINT ( 'NONE',  ( -25.00000000000000000, 0.0000000000000000000, 0.2000000000000000100 ) ) ;
#126 = UNCERTAINTY_MEASURE_WITH_UNIT (LENGTH_MEASURE( 1.000000000000000100E-005 ), #68, 'distance_accuracy_value', 'NONE');
#127 = DIRECTION ( 'NONE',  ( 0.0000000000000000000, 0.0000000000000000000, 1.000000000000000000 ) ) ;
#128 = APPROVAL_DATE_TIME ( #139, #150 ) ;
#129 = ORIENTED_EDGE ( 'NONE', *, *, #24, .T. ) ;
#130 = DIRECTION ( 'NONE',  ( -0.0000000000000000000, -0.0000000000000000000, -1.000000000000000000 ) ) ;
#131 = DIRECTION ( 'NONE',  ( 1.000000000000000000, 0.0000000000000000000, -0.0000000000000000000 ) ) ;
#132 = VERTEX_POINT ( 'NONE', #113 ) ;
#133 = PERSON_AND_ORGANIZATION_ROLE ( 'creator' ) ;
#134 = DIRECTION ( 'NONE',  ( 0.0000000000000000000, 0.0000000000000000000, 1.000000000000000000 ) ) ;
#135 = DESIGN_CONTEXT ( 'detailed design', #119, 'design' ) ;
#136 = APPLICATION_CONTEXT ( 'configuration controlled 3d designs of mechanical parts and assemblies' ) ;
#137 = VERTEX_POINT ( 'NONE', #27 ) ;
#138 = APPROVAL_DATE_TIME ( #43, #121 ) ;
#139 = DATE_AND_TIME ( #151, #19 ) ;
#140 = ORIENTED_EDGE ( 'NONE', *, *, #69, .F. ) ;
#141 = AXIS2_PLACEMENT_3D ( 'NONE', #161, #134, #32 ) ;
#142 = PLANE ( 'NONE',  #107 ) ;
#143 = DIRECTION ( 'NONE',  ( 0.0000000000000000000, 0.0000000000000000000, 1.000000000000000000 ) ) ;
#144 = COORDINATED_UNIVERSAL_TIME_OFFSET ( 5, 0, .BEHIND. ) ;
#145 = ORGANIZATION ( 'UNSPECIFIED', 'UNSPECIFIED', '' ) ;
#146 =( NAMED_UNIT ( * ) PLANE_ANGLE_UNIT ( ) SI_UNIT ( $, .RADIAN. ) );
#147 = SECURITY_CLASSIFICATION_LEVEL ( 'unclassified' ) ;
#148 = CLOSED_SHELL ( 'NONE', ( #85, #117, #100, #72 ) ) ;
#149 = PERSON_AND_ORGANIZATION_ROLE ( 'classification_officer' ) ;
#150 = APPROVAL ( #82, 'UNSPECIFIED' ) ;
#151 = CALENDAR_DATE ( 2017, 31, 1 ) ;
#152 = CARTESIAN_POINT ( 'NONE',  ( 25.00000000000000000, 3.061616997868383000E-015, 0.2000000000000000100 ) ) ;
#153 = APPROVAL ( #16, 'UNSPECIFIED' ) ;
#154 = CARTESIAN_POINT ( 'NONE',  ( 25.00000000000000000, 3.061616997868383000E-015, 0.2000000000000000100 ) ) ;
#155 = ORIENTED_EDGE ( 'NONE', *, *, #89, .F. ) ;
#156 = DIRECTION ( 'NONE',  ( 0.0000000000000000000, 0.0000000000000000000, 1.000000000000000000 ) ) ;
#157 = APPLICATION_PROTOCOL_DEFINITION ( 'international standard', 'config_control_design', 1994, #119 ) ;
#158 = APPROVAL_STATUS ( 'not_yet_approved' ) ;
#159 =( GEOMETRIC_REPRESENTATION_CONTEXT ( 3 ) GLOBAL_UNCERTAINTY_ASSIGNED_CONTEXT ( ( #126 ) ) GLOBAL_UNIT_ASSIGNED_CONTEXT ( ( #68, #146, #56 ) ) REPRESENTATION_CONTEXT ( 'NONE', 'WORKASPACE' ) );
#160 = COORDINATED_UNIVERSAL_TIME_OFFSET ( 5, 0, .BEHIND. ) ;
#161 = CARTESIAN_POINT ( 'NONE',  ( 0.0000000000000000000, 0.0000000000000000000, 0.0000000000000000000 ) ) ;
#162 = CIRCLE ( 'NONE', #141, 25.00000000000000000 ) ;
#163 = AXIS2_PLACEMENT_3D ( 'NONE', #25, #143, #10 ) ;
#164 = CYLINDRICAL_SURFACE ( 'NONE', #120, 25.00000000000000000 ) ;
#165 = SECURITY_CLASSIFICATION ( '', '', #147 ) ;
#166 = PRODUCT_DEFINITION_SHAPE ( 'NONE', 'NONE',  #17 ) ;
#167 = VERTEX_POINT ( 'NONE', #103 ) ;
#168 = ADVANCED_BREP_SHAPE_REPRESENTATION ( 'Web Model 66199', ( #30, #95 ), #159 ) ;
#169 = CARTESIAN_POINT ( 'NONE',  ( 0.0000000000000000000, 0.0000000000000000000, 0.2000000000000000100 ) ) ;
#170 = CARTESIAN_POINT ( 'NONE',  ( 0.0000000000000000000, 0.0000000000000000000, 0.0000000000000000000 ) ) ;
#171 = CALENDAR_DATE ( 2017, 31, 1 ) ;
#172 = DIRECTION ( 'NONE',  ( -0.0000000000000000000, -0.0000000000000000000, -1.000000000000000000 ) ) ;
#173 = APPROVAL_PERSON_ORGANIZATION ( #98, #121, #83 ) ;
#174 = DIRECTION ( 'NONE',  ( 0.0000000000000000000, 0.0000000000000000000, 1.000000000000000000 ) ) ;
#175 = EDGE_LOOP ( 'NONE', ( #155, #84, #49, #88 ) ) ;
ENDSEC;
END-ISO-10303-21;
