ISO-10303-21;
HEADER;
FILE_DESCRIPTION (( 'STEP AP214' ),
    '1' );
FILE_NAME ('19313-E0W.STEP',
    '2009-12-21T16:56:26',
    ( ' ' ),
    ( ' ' ),
    'SwSTEP 2.0',
    'SolidWorks 2009',
    '' );
FILE_SCHEMA (( 'AUTOMOTIVE_DESIGN' ));
ENDSEC;

DATA;
#1 =( LENGTH_UNIT ( ) NAMED_UNIT ( * ) SI_UNIT ( .MILLI., .METRE. ) );
#2 = FILL_AREA_STYLE ('',( #3 ) ) ;
#3 = FILL_AREA_STYLE_COLOUR ( '', #4 ) ;
#4 = COLOUR_RGB ( '',0.7960784313725489700, 0.8235294117647058400, 0.9372549019607843100 ) ;
#5 = CARTESIAN_POINT ( 'NONE',  ( 0.0000000000000000000, 7.884628009085377400E-015, 1.310000000000005600 ) ) ;
#6 = DIRECTION ( 'NONE',  ( -1.224606353822377300E-016, -1.000000000000000000, 0.0000000000000000000 ) ) ;
#7 = DIRECTION ( 'NONE',  ( -1.000000000000000000, 1.224606353822377300E-016, 0.0000000000000000000 ) ) ;
#8 = CARTESIAN_POINT ( 'NONE',  ( 0.0000000000000000000, 0.0000000000000000000, -127.4600000000000200 ) ) ;
#9 = AXIS2_PLACEMENT_3D ( 'NONE', #8, #7, #6 ) ;
#10 = CIRCLE ( 'NONE', #9, 128.7700000000000100 ) ;
#11 =( NAMED_UNIT ( * ) PLANE_ANGLE_UNIT ( ) SI_UNIT ( $, .RADIAN. ) );
#12 =( LENGTH_UNIT ( ) NAMED_UNIT ( * ) SI_UNIT ( .MILLI., .METRE. ) );
#13 = MECHANICAL_DESIGN_GEOMETRIC_PRESENTATION_REPRESENTATION (  '', ( #28 ), #108 ) ;
#14 = VERTEX_POINT ( 'NONE', #15 ) ;
#15 = CARTESIAN_POINT ( 'NONE',  ( -15.00000000000000000, 1.836909530733565900E-015, -1.310000000000000500 ) ) ;
#16 = PRESENTATION_LAYER_ASSIGNMENT (  '', '', ( #17 ) ) ;
#17 = STYLED_ITEM ( 'NONE', ( #18 ), #38 ) ;
#18 = PRESENTATION_STYLE_ASSIGNMENT (( #19 ) ) ;
#19 = SURFACE_STYLE_USAGE ( .BOTH. , #20 ) ;
#20 = SURFACE_SIDE_STYLE ('',( #126 ) ) ;
#21 = ORIENTED_EDGE ( 'NONE', *, *, #37, .T. ) ;
#22 =( NAMED_UNIT ( * ) SI_UNIT ( $, .STERADIAN. ) SOLID_ANGLE_UNIT ( ) );
#23 =( NAMED_UNIT ( * ) PLANE_ANGLE_UNIT ( ) SI_UNIT ( $, .RADIAN. ) );
#24 = EDGE_LOOP ( 'NONE', ( #114, #113, #40, #112, #120 ) ) ;
#25 = EDGE_CURVE ( 'NONE', #88, #147, #141, .T. ) ;
#26 = ORIENTED_EDGE ( 'NONE', *, *, #116, .F. ) ;
#27 = PRESENTATION_LAYER_ASSIGNMENT (  '', '', ( #28 ) ) ;
#28 = STYLED_ITEM ( 'NONE', ( #29 ), #41 ) ;
#29 = PRESENTATION_STYLE_ASSIGNMENT (( #30 ) ) ;
#30 = SURFACE_STYLE_USAGE ( .BOTH. , #31 ) ;
#31 = SURFACE_SIDE_STYLE ('',( #32 ) ) ;
#32 = SURFACE_STYLE_FILL_AREA ( #33 ) ;
#33 = FILL_AREA_STYLE ('',( #34 ) ) ;
#34 = FILL_AREA_STYLE_COLOUR ( '', #136 ) ;
#35 = DIRECTION ( 'NONE',  ( 0.0000000000000000000, 1.000000000000000000, 0.0000000000000000000 ) ) ;
#36 = ORIENTED_EDGE ( 'NONE', *, *, #37, .F. ) ;
#37 = EDGE_CURVE ( 'NONE', #88, #51, #106, .T. ) ;
#38 = ADVANCED_FACE ( 'NONE', ( #107 ), #94, .T. ) ;
#39 = ORIENTED_EDGE ( 'NONE', *, *, #122, .F. ) ;
#40 = ORIENTED_EDGE ( 'NONE', *, *, #91, .T. ) ;
#41 = ADVANCED_FACE ( 'NONE', ( #137 ), #146, .T. ) ;
#42 = DIRECTION ( 'NONE',  ( 1.000000000000000000, 0.0000000000000000000, 0.0000000000000000000 ) ) ;
#43 = DIRECTION ( 'NONE',  ( -0.0000000000000000000, -0.0000000000000000000, 1.000000000000000000 ) ) ;
#44 = CARTESIAN_POINT ( 'NONE',  ( 0.0000000000000000000, 0.0000000000000000000, -1.310000000000000500 ) ) ;
#45 = AXIS2_PLACEMENT_3D ( 'NONE', #44, #43, #42 ) ;
#46 = CIRCLE ( 'NONE', #45, 15.00000000000000000 ) ;
#47 = DIRECTION ( 'NONE',  ( 1.000000000000000000, 0.0000000000000000000, 0.0000000000000000000 ) ) ;
#48 = EDGE_CURVE ( 'NONE', #150, #14, #46, .T. ) ;
#49 = ORIENTED_EDGE ( 'NONE', *, *, #50, .T. ) ;
#50 = EDGE_CURVE ( 'NONE', #102, #51, #10, .T. ) ;
#51 = VERTEX_POINT ( 'NONE', #5 ) ;
#52 =( LENGTH_UNIT ( ) NAMED_UNIT ( * ) SI_UNIT ( .MILLI., .METRE. ) );
#53 = MECHANICAL_DESIGN_GEOMETRIC_PRESENTATION_REPRESENTATION (  '', ( #17 ), #95 ) ;
#54 = MECHANICAL_DESIGN_GEOMETRIC_PRESENTATION_REPRESENTATION (  '', ( #56 ), #160 ) ;
#55 = PRESENTATION_LAYER_ASSIGNMENT (  '', '', ( #56 ) ) ;
#56 = STYLED_ITEM ( 'NONE', ( #57 ), #92 ) ;
#57 = PRESENTATION_STYLE_ASSIGNMENT (( #58 ) ) ;
#58 = SURFACE_STYLE_USAGE ( .BOTH. , #59 ) ;
#59 = SURFACE_SIDE_STYLE ('',( #60 ) ) ;
#60 = SURFACE_STYLE_FILL_AREA ( #61 ) ;
#61 = FILL_AREA_STYLE ('',( #68 ) ) ;
#62 = COLOUR_RGB ( '',0.9568627450980391500, 0.9490196078431372100, 0.9607843137254902200 ) ;
#63 = FACE_OUTER_BOUND ( 'NONE', #87, .T. ) ;
#64 = DIRECTION ( 'NONE',  ( -0.0000000000000000000, -0.0000000000000000000, 1.000000000000000000 ) ) ;
#65 = VECTOR ( 'NONE', #64, 1000.000000000000000 ) ;
#66 = CARTESIAN_POINT ( 'NONE',  ( 15.00000000000000000, 0.0000000000000000000, 4.308132045400366600 ) ) ;
#67 = LINE ( 'NONE', #66, #65 ) ;
#68 = FILL_AREA_STYLE_COLOUR ( '', #62 ) ;
#69 = DIRECTION ( 'NONE',  ( 1.000000000000000000, 0.0000000000000000000, 0.0000000000000000000 ) ) ;
#70 = DIRECTION ( 'NONE',  ( -0.0000000000000000000, -0.0000000000000000000, 1.000000000000000000 ) ) ;
#71 = CARTESIAN_POINT ( 'NONE',  ( 0.0000000000000000000, 0.0000000000000000000, 0.4333653478553181100 ) ) ;
#72 = AXIS2_PLACEMENT_3D ( 'NONE', #71, #70, #69 ) ;
#73 = CIRCLE ( 'NONE', #72, 15.00000000000000200 ) ;
#74 = CARTESIAN_POINT ( 'NONE',  ( 0.0000000000000000000, 15.00000000000004800, 0.4333653478553185500 ) ) ;
#75 =( GEOMETRIC_REPRESENTATION_CONTEXT ( 3 ) GLOBAL_UNCERTAINTY_ASSIGNED_CONTEXT ( ( #96 ) ) GLOBAL_UNIT_ASSIGNED_CONTEXT ( ( #76, #98, #97 ) ) REPRESENTATION_CONTEXT ( 'NONE', 'WORKASPACE' ) );
#76 =( LENGTH_UNIT ( ) NAMED_UNIT ( * ) SI_UNIT ( .MILLI., .METRE. ) );
#77 = MECHANICAL_DESIGN_GEOMETRIC_PRESENTATION_REPRESENTATION (  '', ( #79 ), #75 ) ;
#78 = PRESENTATION_LAYER_ASSIGNMENT (  '', '', ( #79 ) ) ;
#79 = STYLED_ITEM ( 'NONE', ( #80 ), #84 ) ;
#80 = PRESENTATION_STYLE_ASSIGNMENT (( #81 ) ) ;
#81 = SURFACE_STYLE_USAGE ( .BOTH. , #82 ) ;
#82 = SURFACE_SIDE_STYLE ('',( #83 ) ) ;
#83 = SURFACE_STYLE_FILL_AREA ( #2 ) ;
#84 = MANIFOLD_SOLID_BREP ( 'NONE', #111 ) ;
#85 = UNCERTAINTY_MEASURE_WITH_UNIT (LENGTH_MEASURE( 1.000000000000000100E-005 ), #12, 'distance_accuracy_value', 'NONE');
#86 =( NAMED_UNIT ( * ) SI_UNIT ( $, .STERADIAN. ) SOLID_ANGLE_UNIT ( ) );
#87 = EDGE_LOOP ( 'NONE', ( #132, #103, #148, #26, #90 ) ) ;
#88 = VERTEX_POINT ( 'NONE', #74 ) ;
#89 = EDGE_CURVE ( 'NONE', #102, #117, #73, .T. ) ;
#90 = ORIENTED_EDGE ( 'NONE', *, *, #91, .F. ) ;
#91 = EDGE_CURVE ( 'NONE', #150, #117, #67, .T. ) ;
#92 = ADVANCED_FACE ( 'NONE', ( #63 ), #215, .T. ) ;
#93 = ADVANCED_FACE ( 'NONE', ( #180 ), #196, .T. ) ;
#94 = SPHERICAL_SURFACE ( 'NONE', #135, 128.7700000000000100 ) ;
#95 =( GEOMETRIC_REPRESENTATION_CONTEXT ( 3 ) GLOBAL_UNCERTAINTY_ASSIGNED_CONTEXT ( ( #149 ) ) GLOBAL_UNIT_ASSIGNED_CONTEXT ( ( #52, #23, #22 ) ) REPRESENTATION_CONTEXT ( 'NONE', 'WORKASPACE' ) );
#96 = UNCERTAINTY_MEASURE_WITH_UNIT (LENGTH_MEASURE( 1.000000000000000100E-005 ), #76, 'distance_accuracy_value', 'NONE');
#97 =( NAMED_UNIT ( * ) SI_UNIT ( $, .STERADIAN. ) SOLID_ANGLE_UNIT ( ) );
#98 =( NAMED_UNIT ( * ) PLANE_ANGLE_UNIT ( ) SI_UNIT ( $, .RADIAN. ) );
#99 = CARTESIAN_POINT ( 'NONE',  ( 0.0000000000000000000, 0.0000000000000000000, 0.4333653478553181100 ) ) ;
#100 = EDGE_LOOP ( 'NONE', ( #101, #118, #49, #36 ) ) ;
#101 = ORIENTED_EDGE ( 'NONE', *, *, #25, .T. ) ;
#102 = VERTEX_POINT ( 'NONE', #183 ) ;
#103 = ORIENTED_EDGE ( 'NONE', *, *, #104, .T. ) ;
#104 = EDGE_CURVE ( 'NONE', #14, #147, #238, .T. ) ;
#105 = AXIS2_PLACEMENT_3D ( 'NONE', #142, #131, #130 ) ;
#106 = CIRCLE ( 'NONE', #105, 128.7700000000000400 ) ;
#107 = FACE_OUTER_BOUND ( 'NONE', #123, .T. ) ;
#108 =( GEOMETRIC_REPRESENTATION_CONTEXT ( 3 ) GLOBAL_UNCERTAINTY_ASSIGNED_CONTEXT ( ( #85 ) ) GLOBAL_UNIT_ASSIGNED_CONTEXT ( ( #12, #11, #86 ) ) REPRESENTATION_CONTEXT ( 'NONE', 'WORKASPACE' ) );
#109 = ADVANCED_FACE ( 'NONE', ( #193 ), #206, .F. ) ;
#110 = ORIENTED_EDGE ( 'NONE', *, *, #48, .F. ) ;
#111 = CLOSED_SHELL ( 'NONE', ( #92, #93, #38, #41, #109 ) ) ;
#112 = ORIENTED_EDGE ( 'NONE', *, *, #89, .F. ) ;
#113 = ORIENTED_EDGE ( 'NONE', *, *, #122, .T. ) ;
#114 = ORIENTED_EDGE ( 'NONE', *, *, #104, .F. ) ;
#115 = ORIENTED_EDGE ( 'NONE', *, *, #116, .T. ) ;
#116 = EDGE_CURVE ( 'NONE', #117, #88, #205, .T. ) ;
#117 = VERTEX_POINT ( 'NONE', #208 ) ;
#118 = ORIENTED_EDGE ( 'NONE', *, *, #119, .T. ) ;
#119 = EDGE_CURVE ( 'NONE', #147, #102, #157, .T. ) ;
#120 = ORIENTED_EDGE ( 'NONE', *, *, #119, .F. ) ;
#121 = EDGE_LOOP ( 'NONE', ( #110, #39 ) ) ;
#122 = EDGE_CURVE ( 'NONE', #14, #150, #152, .T. ) ;
#123 = EDGE_LOOP ( 'NONE', ( #124, #125, #115, #21 ) ) ;
#124 = ORIENTED_EDGE ( 'NONE', *, *, #50, .F. ) ;
#125 = ORIENTED_EDGE ( 'NONE', *, *, #89, .T. ) ;
#126 = SURFACE_STYLE_FILL_AREA ( #127 ) ;
#127 = FILL_AREA_STYLE ('',( #128 ) ) ;
#128 = FILL_AREA_STYLE_COLOUR ( '', #129 ) ;
#129 = COLOUR_RGB ( '',0.9568627450980391500, 0.9490196078431372100, 0.9607843137254902200 ) ;
#130 = DIRECTION ( 'NONE',  ( 0.0000000000000000000, 0.0000000000000000000, -1.000000000000000000 ) ) ;
#131 = DIRECTION ( 'NONE',  ( 1.000000000000000000, 0.0000000000000000000, 0.0000000000000000000 ) ) ;
#132 = ORIENTED_EDGE ( 'NONE', *, *, #48, .T. ) ;
#133 = DIRECTION ( 'NONE',  ( -1.000000000000000000, 0.0000000000000000000, 0.0000000000000000000 ) ) ;
#134 = CARTESIAN_POINT ( 'NONE',  ( 0.0000000000000000000, 0.0000000000000000000, -127.4600000000000200 ) ) ;
#135 = AXIS2_PLACEMENT_3D ( 'NONE', #134, #133, #35 ) ;
#136 = COLOUR_RGB ( '',0.9568627450980391500, 0.9490196078431372100, 0.9607843137254902200 ) ;
#137 = FACE_OUTER_BOUND ( 'NONE', #24, .T. ) ;
#138 = DIRECTION ( 'NONE',  ( 1.000000000000000000, 0.0000000000000000000, 0.0000000000000000000 ) ) ;
#139 = DIRECTION ( 'NONE',  ( -0.0000000000000000000, -0.0000000000000000000, 1.000000000000000000 ) ) ;
#140 = AXIS2_PLACEMENT_3D ( 'NONE', #99, #139, #138 ) ;
#141 = CIRCLE ( 'NONE', #140, 15.00000000000000200 ) ;
#142 = CARTESIAN_POINT ( 'NONE',  ( 0.0000000000000000000, 0.0000000000000000000, -127.4600000000000200 ) ) ;
#143 = DIRECTION ( 'NONE',  ( -0.0000000000000000000, -0.0000000000000000000, 1.000000000000000000 ) ) ;
#144 = AXIS2_PLACEMENT_3D ( 'NONE', #145, #143, #47 ) ;
#145 = CARTESIAN_POINT ( 'NONE',  ( 0.0000000000000000000, 0.0000000000000000000, 4.308132045400366600 ) ) ;
#146 = CYLINDRICAL_SURFACE ( 'NONE', #144, 15.00000000000000000 ) ;
#147 = VERTEX_POINT ( 'NONE', #172 ) ;
#148 = ORIENTED_EDGE ( 'NONE', *, *, #25, .F. ) ;
#149 = UNCERTAINTY_MEASURE_WITH_UNIT (LENGTH_MEASURE( 1.000000000000000100E-005 ), #52, 'distance_accuracy_value', 'NONE');
#150 = VERTEX_POINT ( 'NONE', #171 ) ;
#151 =( NAMED_UNIT ( * ) PLANE_ANGLE_UNIT ( ) SI_UNIT ( $, .RADIAN. ) );
#152 = CIRCLE ( 'NONE', #175, 15.00000000000000000 ) ;
#153 = DIRECTION ( 'NONE',  ( 1.000000000000000000, 0.0000000000000000000, 0.0000000000000000000 ) ) ;
#154 = DIRECTION ( 'NONE',  ( -0.0000000000000000000, -0.0000000000000000000, 1.000000000000000000 ) ) ;
#155 = CARTESIAN_POINT ( 'NONE',  ( 0.0000000000000000000, 0.0000000000000000000, 0.4333653478553181100 ) ) ;
#156 = AXIS2_PLACEMENT_3D ( 'NONE', #155, #154, #153 ) ;
#157 = CIRCLE ( 'NONE', #156, 15.00000000000000200 ) ;
#158 = CARTESIAN_POINT ( 'NONE',  ( 0.0000000000000000000, 0.0000000000000000000, -1.310000000000000500 ) ) ;
#159 = UNCERTAINTY_MEASURE_WITH_UNIT (LENGTH_MEASURE( 1.000000000000000100E-005 ), #1, 'distance_accuracy_value', 'NONE');
#160 =( GEOMETRIC_REPRESENTATION_CONTEXT ( 3 ) GLOBAL_UNCERTAINTY_ASSIGNED_CONTEXT ( ( #159 ) ) GLOBAL_UNIT_ASSIGNED_CONTEXT ( ( #1, #151, #194 ) ) REPRESENTATION_CONTEXT ( 'NONE', 'WORKASPACE' ) );
#161 = AXIS2_PLACEMENT_3D ( 'NONE', #170, #164, #163 ) ;
#162 = SHAPE_DEFINITION_REPRESENTATION ( #198, #233 ) ;
#163 = DIRECTION ( 'NONE',  ( 1.000000000000000000, 0.0000000000000000000, 0.0000000000000000000 ) ) ;
#164 = DIRECTION ( 'NONE',  ( 0.0000000000000000000, 0.0000000000000000000, 1.000000000000000000 ) ) ;
#165 = UNCERTAINTY_MEASURE_WITH_UNIT (LENGTH_MEASURE( 1.000000000000000100E-005 ), #202, 'distance_accuracy_value', 'NONE');
#166 =( NAMED_UNIT ( * ) SI_UNIT ( $, .STERADIAN. ) SOLID_ANGLE_UNIT ( ) );
#167 =( NAMED_UNIT ( * ) SI_UNIT ( $, .STERADIAN. ) SOLID_ANGLE_UNIT ( ) );
#168 =( NAMED_UNIT ( * ) PLANE_ANGLE_UNIT ( ) SI_UNIT ( $, .RADIAN. ) );
#169 =( LENGTH_UNIT ( ) NAMED_UNIT ( * ) SI_UNIT ( .MILLI., .METRE. ) );
#170 = CARTESIAN_POINT ( 'NONE',  ( 0.0000000000000000000, 0.0000000000000000000, 0.0000000000000000000 ) ) ;
#171 = CARTESIAN_POINT ( 'NONE',  ( 15.00000000000000000, 0.0000000000000000000, -1.310000000000000500 ) ) ;
#172 = CARTESIAN_POINT ( 'NONE',  ( -15.00000000000000400, 1.836909530733566300E-015, 0.4333653478553181100 ) ) ;
#173 = DIRECTION ( 'NONE',  ( 1.000000000000000000, 0.0000000000000000000, 0.0000000000000000000 ) ) ;
#174 = DIRECTION ( 'NONE',  ( -0.0000000000000000000, -0.0000000000000000000, 1.000000000000000000 ) ) ;
#175 = AXIS2_PLACEMENT_3D ( 'NONE', #158, #174, #173 ) ;
#176 = DIRECTION ( 'NONE',  ( 1.000000000000000000, 0.0000000000000000000, 0.0000000000000000000 ) ) ;
#177 = DIRECTION ( 'NONE',  ( -0.0000000000000000000, -0.0000000000000000000, 1.000000000000000000 ) ) ;
#178 = CARTESIAN_POINT ( 'NONE',  ( 0.0000000000000000000, 0.0000000000000000000, 4.308132045400366600 ) ) ;
#179 = COLOUR_RGB ( '',0.9568627450980391500, 0.9490196078431372100, 0.9607843137254902200 ) ;
#180 = FACE_OUTER_BOUND ( 'NONE', #100, .T. ) ;
#181 = DIRECTION ( 'NONE',  ( -1.000000000000000000, 0.0000000000000000000, 0.0000000000000000000 ) ) ;
#182 = CARTESIAN_POINT ( 'NONE',  ( 0.0000000000000000000, 0.0000000000000000000, -127.4600000000000200 ) ) ;
#183 = CARTESIAN_POINT ( 'NONE',  ( -1.836909530733571800E-015, -15.00000000000004800, 0.4333653478553185500 ) ) ;
#184 = MECHANICAL_DESIGN_GEOMETRIC_PRESENTATION_REPRESENTATION (  '', ( #186 ), #207 ) ;
#185 = PRESENTATION_LAYER_ASSIGNMENT (  '', '', ( #186 ) ) ;
#186 = STYLED_ITEM ( 'NONE', ( #187 ), #109 ) ;
#187 = PRESENTATION_STYLE_ASSIGNMENT (( #188 ) ) ;
#188 = SURFACE_STYLE_USAGE ( .BOTH. , #189 ) ;
#189 = SURFACE_SIDE_STYLE ('',( #190 ) ) ;
#190 = SURFACE_STYLE_FILL_AREA ( #191 ) ;
#191 = FILL_AREA_STYLE ('',( #239 ) ) ;
#192 = COLOUR_RGB ( '',0.9568627450980391500, 0.9490196078431372100, 0.9607843137254902200 ) ;
#193 = FACE_OUTER_BOUND ( 'NONE', #121, .T. ) ;
#194 =( NAMED_UNIT ( * ) SI_UNIT ( $, .STERADIAN. ) SOLID_ANGLE_UNIT ( ) );
#195 = AXIS2_PLACEMENT_3D ( 'NONE', #182, #181, #240 ) ;
#196 = SPHERICAL_SURFACE ( 'NONE', #195, 128.7700000000000100 ) ;
#197 =( GEOMETRIC_REPRESENTATION_CONTEXT ( 3 ) GLOBAL_UNCERTAINTY_ASSIGNED_CONTEXT ( ( #216 ) ) GLOBAL_UNIT_ASSIGNED_CONTEXT ( ( #241, #168, #167 ) ) REPRESENTATION_CONTEXT ( 'NONE', 'WORKASPACE' ) );
#198 = PRODUCT_DEFINITION_SHAPE ( 'NONE', 'NONE',  #255 ) ;
#199 = PRODUCT_RELATED_PRODUCT_CATEGORY ( 'part', '', ( #259 ) ) ;
#200 = PRODUCT_DEFINITION_FORMATION_WITH_SPECIFIED_SOURCE ( 'ANY', '', #259, .NOT_KNOWN. ) ;
#201 =( NAMED_UNIT ( * ) PLANE_ANGLE_UNIT ( ) SI_UNIT ( $, .RADIAN. ) );
#202 =( LENGTH_UNIT ( ) NAMED_UNIT ( * ) SI_UNIT ( .MILLI., .METRE. ) );
#203 = CARTESIAN_POINT ( 'NONE',  ( 0.0000000000000000000, 4.812861920649097600E-016, -1.310000000000000100 ) ) ;
#204 = AXIS2_PLACEMENT_3D ( 'NONE', #203, #214, #213 ) ;
#205 = CIRCLE ( 'NONE', #212, 15.00000000000000200 ) ;
#206 = PLANE ( 'NONE',  #204 ) ;
#207 =( GEOMETRIC_REPRESENTATION_CONTEXT ( 3 ) GLOBAL_UNCERTAINTY_ASSIGNED_CONTEXT ( ( #165 ) ) GLOBAL_UNIT_ASSIGNED_CONTEXT ( ( #202, #201, #166 ) ) REPRESENTATION_CONTEXT ( 'NONE', 'WORKASPACE' ) );
#208 = CARTESIAN_POINT ( 'NONE',  ( 15.00000000000000400, 0.0000000000000000000, 0.4333653478553181100 ) ) ;
#209 = DIRECTION ( 'NONE',  ( 1.000000000000000000, 0.0000000000000000000, 0.0000000000000000000 ) ) ;
#210 = DIRECTION ( 'NONE',  ( -0.0000000000000000000, -0.0000000000000000000, 1.000000000000000000 ) ) ;
#211 = CARTESIAN_POINT ( 'NONE',  ( 0.0000000000000000000, 0.0000000000000000000, 0.4333653478553181100 ) ) ;
#212 = AXIS2_PLACEMENT_3D ( 'NONE', #211, #210, #209 ) ;
#213 = DIRECTION ( 'NONE',  ( 1.000000000000000000, 0.0000000000000000000, 0.0000000000000000000 ) ) ;
#214 = DIRECTION ( 'NONE',  ( 0.0000000000000000000, -0.0000000000000000000, 1.000000000000000000 ) ) ;
#215 = CYLINDRICAL_SURFACE ( 'NONE', #247, 15.00000000000000000 ) ;
#216 = UNCERTAINTY_MEASURE_WITH_UNIT (LENGTH_MEASURE( 1.000000000000000100E-005 ), #241, 'distance_accuracy_value', 'NONE');
#217 =( GEOMETRIC_REPRESENTATION_CONTEXT ( 3 ) GLOBAL_UNCERTAINTY_ASSIGNED_CONTEXT ( ( #218 ) ) GLOBAL_UNIT_ASSIGNED_CONTEXT ( ( #221, #220, #219 ) ) REPRESENTATION_CONTEXT ( 'NONE', 'WORKASPACE' ) );
#218 = UNCERTAINTY_MEASURE_WITH_UNIT (LENGTH_MEASURE( 1.000000000000000100E-005 ), #221, 'distance_accuracy_value', 'NONE');
#219 =( NAMED_UNIT ( * ) SI_UNIT ( $, .STERADIAN. ) SOLID_ANGLE_UNIT ( ) );
#220 =( NAMED_UNIT ( * ) PLANE_ANGLE_UNIT ( ) SI_UNIT ( $, .RADIAN. ) );
#221 =( LENGTH_UNIT ( ) NAMED_UNIT ( * ) SI_UNIT ( .MILLI., .METRE. ) );
#222 = MECHANICAL_DESIGN_GEOMETRIC_PRESENTATION_REPRESENTATION (  '', ( #224 ), #217 ) ;
#223 = PRESENTATION_LAYER_ASSIGNMENT (  '', '', ( #224 ) ) ;
#224 = STYLED_ITEM ( 'NONE', ( #225 ), #233 ) ;
#225 = PRESENTATION_STYLE_ASSIGNMENT (( #226 ) ) ;
#226 = SURFACE_STYLE_USAGE ( .BOTH. , #227 ) ;
#227 = SURFACE_SIDE_STYLE ('',( #228 ) ) ;
#228 = SURFACE_STYLE_FILL_AREA ( #229 ) ;
#229 = FILL_AREA_STYLE ('',( #230 ) ) ;
#230 = FILL_AREA_STYLE_COLOUR ( '', #231 ) ;
#231 = COLOUR_RGB ( '',0.7960784313725489700, 0.8235294117647058400, 0.9372549019607843100 ) ;
#232 = APPLICATION_CONTEXT ( 'automotive_design' ) ;
#233 = ADVANCED_BREP_SHAPE_REPRESENTATION ( '19313-E0W', ( #84, #161 ), #234 ) ;
#234 =( GEOMETRIC_REPRESENTATION_CONTEXT ( 3 ) GLOBAL_UNCERTAINTY_ASSIGNED_CONTEXT ( ( #244 ) ) GLOBAL_UNIT_ASSIGNED_CONTEXT ( ( #169, #246, #245 ) ) REPRESENTATION_CONTEXT ( 'NONE', 'WORKASPACE' ) );
#235 = DIRECTION ( 'NONE',  ( -0.0000000000000000000, -0.0000000000000000000, 1.000000000000000000 ) ) ;
#236 = VECTOR ( 'NONE', #235, 1000.000000000000000 ) ;
#237 = CARTESIAN_POINT ( 'NONE',  ( -15.00000000000000000, 1.836909530733565900E-015, 4.308132045400366600 ) ) ;
#238 = LINE ( 'NONE', #237, #236 ) ;
#239 = FILL_AREA_STYLE_COLOUR ( '', #192 ) ;
#240 = DIRECTION ( 'NONE',  ( 0.0000000000000000000, 1.000000000000000000, 0.0000000000000000000 ) ) ;
#241 =( LENGTH_UNIT ( ) NAMED_UNIT ( * ) SI_UNIT ( .MILLI., .METRE. ) );
#242 = MECHANICAL_DESIGN_GEOMETRIC_PRESENTATION_REPRESENTATION (  '', ( #248 ), #197 ) ;
#243 = PRESENTATION_LAYER_ASSIGNMENT (  '', '', ( #248 ) ) ;
#244 = UNCERTAINTY_MEASURE_WITH_UNIT (LENGTH_MEASURE( 1.000000000000000100E-005 ), #169, 'distance_accuracy_value', 'NONE');
#245 =( NAMED_UNIT ( * ) SI_UNIT ( $, .STERADIAN. ) SOLID_ANGLE_UNIT ( ) );
#246 =( NAMED_UNIT ( * ) PLANE_ANGLE_UNIT ( ) SI_UNIT ( $, .RADIAN. ) );
#247 = AXIS2_PLACEMENT_3D ( 'NONE', #178, #177, #176 ) ;
#248 = STYLED_ITEM ( 'NONE', ( #249 ), #93 ) ;
#249 = PRESENTATION_STYLE_ASSIGNMENT (( #250 ) ) ;
#250 = SURFACE_STYLE_USAGE ( .BOTH. , #251 ) ;
#251 = SURFACE_SIDE_STYLE ('',( #252 ) ) ;
#252 = SURFACE_STYLE_FILL_AREA ( #253 ) ;
#253 = FILL_AREA_STYLE ('',( #254 ) ) ;
#254 = FILL_AREA_STYLE_COLOUR ( '', #179 ) ;
#255 = PRODUCT_DEFINITION ( 'UNKNOWN', '', #200, #256 ) ;
#256 = PRODUCT_DEFINITION_CONTEXT ( 'detailed design', #258, 'design' ) ;
#257 = APPLICATION_PROTOCOL_DEFINITION ( 'draft international standard', 'automotive_design', 1998, #258 ) ;
#258 = APPLICATION_CONTEXT ( 'automotive_design' ) ;
#259 = PRODUCT ( '19313-E0W', '19313-E0W', '', ( #260 ) ) ;
#260 = PRODUCT_CONTEXT ( 'NONE', #232, 'mechanical' ) ;
#261 = APPLICATION_PROTOCOL_DEFINITION ( 'draft international standard', 'automotive_design', 1998, #232 ) ;
ENDSEC;
END-ISO-10303-21;
