ISO-10303-21;
HEADER;
FILE_DESCRIPTION (( 'STEP AP203' ),
    '1' );
FILE_NAME ('Web Model 45567_21015.step',
    '2022-03-15T17:14:43',
    ( '' ),
    ( '' ),
    'SwSTEP 2.0',
    'SolidWorks 2021',
    '' );
FILE_SCHEMA (( 'CONFIG_CONTROL_DESIGN' ));
ENDSEC;

DATA;
#1 = APPLICATION_CONTEXT ( 'configuration controlled 3d designs of mechanical parts and assemblies' ) ;
#2 = APPROVAL_PERSON_ORGANIZATION ( #41, #50, #159 ) ;
#3 = APPROVAL_STATUS ( 'not_yet_approved' ) ;
#4 = ORIENTED_EDGE ( 'NONE', *, *, #47, .F. ) ;
#5 = ORIENTED_EDGE ( 'NONE', *, *, #93, .T. ) ;
#6 = PERSON_AND_ORGANIZATION ( #65, #83 ) ;
#7 = DIRECTION ( 'NONE',  ( 1.000000000000000000, 0.000000000000000000, 0.000000000000000000 ) ) ;
#8 = DATE_AND_TIME ( #92, #118 ) ;
#9 = VECTOR ( 'NONE', #134, 1000.000000000000000 ) ;
#10 = LOCAL_TIME ( 13, 14, 43.00000000000000000, #107 ) ;
#11 = CC_DESIGN_PERSON_AND_ORGANIZATION_ASSIGNMENT ( #6, #31, ( #110 ) ) ;
#12 = DIRECTION ( 'NONE',  ( 1.000000000000000000, 0.000000000000000000, 0.000000000000000000 ) ) ;
#13 = CIRCLE ( 'NONE', #75, 3.175000000000001155 ) ;
#14 = ORIENTED_EDGE ( 'NONE', *, *, #103, .T. ) ;
#15 =( LENGTH_UNIT ( ) NAMED_UNIT ( * ) SI_UNIT ( .MILLI., .METRE. ) );
#16 = DIRECTION ( 'NONE',  ( 0.000000000000000000, 0.000000000000000000, 1.000000000000000000 ) ) ;
#17 = ADVANCED_FACE ( 'NONE', ( #59 ), #86, .F. ) ;
#18 = LINE ( 'NONE', #141, #48 ) ;
#19 = COORDINATED_UNIVERSAL_TIME_OFFSET ( 5, 0, .BEHIND. ) ;
#20 = CARTESIAN_POINT ( 'NONE',  ( 0.000000000000000000, 0.000000000000000000, 2.000000000000000000 ) ) ;
#21 = APPROVAL_ROLE ( '' ) ;
#22 = ORIENTED_EDGE ( 'NONE', *, *, #80, .F. ) ;
#23 = AXIS2_PLACEMENT_3D ( 'NONE', #56, #145, #40 ) ;
#24 = ORIENTED_EDGE ( 'NONE', *, *, #163, .T. ) ;
#25 = ORIENTED_EDGE ( 'NONE', *, *, #32, .F. ) ;
#26 = CC_DESIGN_PERSON_AND_ORGANIZATION_ASSIGNMENT ( #90, #146, ( #110 ) ) ;
#27 = LINE ( 'NONE', #81, #9 ) ;
#28 = CC_DESIGN_APPROVAL ( #74, ( #119 ) ) ;
#29 = CARTESIAN_POINT ( 'NONE',  ( 0.000000000000000000, 0.000000000000000000, 2.000000000000000000 ) ) ;
#30 = DIRECTION ( 'NONE',  ( 0.000000000000000000, 0.000000000000000000, 1.000000000000000000 ) ) ;
#31 = PERSON_AND_ORGANIZATION_ROLE ( 'design_supplier' ) ;
#32 = EDGE_CURVE ( 'NONE', #99, #78, #39, .T. ) ;
#33 = CARTESIAN_POINT ( 'NONE',  ( 0.000000000000000000, 0.000000000000000000, 0.000000000000000000 ) ) ;
#34 = ORIENTED_EDGE ( 'NONE', *, *, #103, .F. ) ;
#35 = VERTEX_POINT ( 'NONE', #111 ) ;
#36 = PRODUCT ( 'Web Model 45567_21015', 'Web Model 45567_21015', '', ( #72 ) ) ;
#37 = PERSON_AND_ORGANIZATION ( #65, #83 ) ;
#38 = PRODUCT_RELATED_PRODUCT_CATEGORY ( 'detail', '', ( #36 ) ) ;
#39 = CIRCLE ( 'NONE', #67, 3.175000000000001155 ) ;
#40 = DIRECTION ( 'NONE',  ( 1.000000000000000000, 0.000000000000000000, 0.000000000000000000 ) ) ;
#41 = PERSON_AND_ORGANIZATION ( #65, #83 ) ;
#42 = SHAPE_DEFINITION_REPRESENTATION ( #79, #147 ) ;
#43 = CYLINDRICAL_SURFACE ( 'NONE', #106, 3.175000000000001155 ) ;
#44 = APPROVAL_DATE_TIME ( #54, #50 ) ;
#45 = APPLICATION_PROTOCOL_DEFINITION ( 'international standard', 'config_control_design', 1994, #1 ) ;
#46 = COORDINATED_UNIVERSAL_TIME_OFFSET ( 5, 0, .BEHIND. ) ;
#47 = EDGE_CURVE ( 'NONE', #98, #78, #27, .T. ) ;
#48 = VECTOR ( 'NONE', #155, 1000.000000000000000 ) ;
#49 = PERSON_AND_ORGANIZATION_ROLE ( 'creator' ) ;
#50 = APPROVAL ( #172, 'UNSPECIFIED' ) ;
#51 = ORIENTED_EDGE ( 'NONE', *, *, #47, .T. ) ;
#52 = CARTESIAN_POINT ( 'NONE',  ( 0.000000000000000000, 0.000000000000000000, 2.000000000000000000 ) ) ;
#53 = CARTESIAN_POINT ( 'NONE',  ( 0.000000000000000000, 0.000000000000000000, 0.000000000000000000 ) ) ;
#54 = DATE_AND_TIME ( #125, #101 ) ;
#55 = ADVANCED_FACE ( 'NONE', ( #140 ), #43, .T. ) ;
#56 = CARTESIAN_POINT ( 'NONE',  ( 0.000000000000000000, 0.000000000000000000, 0.000000000000000000 ) ) ;
#57 = CC_DESIGN_APPROVAL ( #131, ( #110 ) ) ;
#58 = DESIGN_CONTEXT ( 'detailed design', #1, 'design' ) ;
#59 = FACE_OUTER_BOUND ( 'NONE', #84, .T. ) ;
#60 = CLOSED_SHELL ( 'NONE', ( #55, #175, #105, #17 ) ) ;
#61 = CC_DESIGN_PERSON_AND_ORGANIZATION_ASSIGNMENT ( #170, #129, ( #87 ) ) ;
#62 = AXIS2_PLACEMENT_3D ( 'NONE', #138, #123, #133 ) ;
#63 = DIRECTION ( 'NONE',  ( -1.000000000000000000, 0.000000000000000000, 0.000000000000000000 ) ) ;
#64 = CYLINDRICAL_SURFACE ( 'NONE', #174, 3.175000000000001155 ) ;
#65 = PERSON ( 'UNSPECIFIED', 'UNSPECIFIED', 'UNSPECIFIED', ('UNSPECIFIED'), ('UNSPECIFIED'), ('UNSPECIFIED') ) ;
#66 = CALENDAR_DATE ( 2022, 15, 3 ) ;
#67 = AXIS2_PLACEMENT_3D ( 'NONE', #33, #95, #12 ) ;
#68 = CARTESIAN_POINT ( 'NONE',  ( -3.175000000000001155, 0.000000000000000000, 0.000000000000000000 ) ) ;
#69 = APPROVAL_PERSON_ORGANIZATION ( #153, #74, #21 ) ;
#70 = SECURITY_CLASSIFICATION_LEVEL ( 'unclassified' ) ;
#71 = CC_DESIGN_DATE_AND_TIME_ASSIGNMENT ( #127, #168, ( #87 ) ) ;
#72 = MECHANICAL_CONTEXT ( 'NONE', #112, 'mechanical' ) ;
#73 = CARTESIAN_POINT ( 'NONE',  ( 0.000000000000000000, 0.000000000000000000, 2.000000000000000000 ) ) ;
#74 = APPROVAL ( #139, 'UNSPECIFIED' ) ;
#75 = AXIS2_PLACEMENT_3D ( 'NONE', #124, #30, #89 ) ;
#76 = APPROVAL_PERSON_ORGANIZATION ( #135, #131, #164 ) ;
#77 = CC_DESIGN_SECURITY_CLASSIFICATION ( #87, ( #110 ) ) ;
#78 = VERTEX_POINT ( 'NONE', #68 ) ;
#79 = PRODUCT_DEFINITION_SHAPE ( 'NONE', 'NONE',  #119 ) ;
#80 = EDGE_CURVE ( 'NONE', #35, #98, #13, .T. ) ;
#81 = CARTESIAN_POINT ( 'NONE',  ( -3.175000000000001155, 0.000000000000000000, 2.000000000000000000 ) ) ;
#82 = DATE_TIME_ROLE ( 'creation_date' ) ;
#83 = ORGANIZATION ( 'UNSPECIFIED', 'UNSPECIFIED', '' ) ;
#84 = EDGE_LOOP ( 'NONE', ( #34, #25 ) ) ;
#85 = PERSON_AND_ORGANIZATION ( #65, #83 ) ;
#86 = PLANE ( 'NONE',  #62 ) ;
#87 = SECURITY_CLASSIFICATION ( '', '', #70 ) ;
#88 = DIRECTION ( 'NONE',  ( 1.000000000000000000, 0.000000000000000000, -0.000000000000000000 ) ) ;
#89 = DIRECTION ( 'NONE',  ( 1.000000000000000000, 0.000000000000000000, 0.000000000000000000 ) ) ;
#90 = PERSON_AND_ORGANIZATION ( #65, #83 ) ;
#91 = DIRECTION ( 'NONE',  ( -0.000000000000000000, -0.000000000000000000, -1.000000000000000000 ) ) ;
#92 = CALENDAR_DATE ( 2022, 15, 3 ) ;
#93 = EDGE_CURVE ( 'NONE', #98, #35, #115, .T. ) ;
#94 = DATE_AND_TIME ( #122, #136 ) ;
#95 = DIRECTION ( 'NONE',  ( 0.000000000000000000, 0.000000000000000000, 1.000000000000000000 ) ) ;
#96 = CC_DESIGN_DATE_AND_TIME_ASSIGNMENT ( #149, #82, ( #119 ) ) ;
#97 = COORDINATED_UNIVERSAL_TIME_OFFSET ( 5, 0, .BEHIND. ) ;
#98 = VERTEX_POINT ( 'NONE', #102 ) ;
#99 = VERTEX_POINT ( 'NONE', #116 ) ;
#100 = FACE_OUTER_BOUND ( 'NONE', #165, .T. ) ;
#101 = LOCAL_TIME ( 13, 14, 43.00000000000000000, #46 ) ;
#102 = CARTESIAN_POINT ( 'NONE',  ( -3.175000000000001155, 0.000000000000000000, 2.000000000000000000 ) ) ;
#103 = EDGE_CURVE ( 'NONE', #78, #99, #104, .T. ) ;
#104 = CIRCLE ( 'NONE', #23, 3.175000000000001155 ) ;
#105 = ADVANCED_FACE ( 'NONE', ( #100 ), #154, .T. ) ;
#106 = AXIS2_PLACEMENT_3D ( 'NONE', #52, #91, #113 ) ;
#107 = COORDINATED_UNIVERSAL_TIME_OFFSET ( 5, 0, .BEHIND. ) ;
#108 = EDGE_LOOP ( 'NONE', ( #148, #166, #51, #14 ) ) ;
#109 = ORIENTED_EDGE ( 'NONE', *, *, #80, .T. ) ;
#110 = PRODUCT_DEFINITION_FORMATION_WITH_SPECIFIED_SOURCE ( 'ANY', '', #36, .NOT_KNOWN. ) ;
#111 = CARTESIAN_POINT ( 'NONE',  ( 3.175000000000001155, 3.888253587292847561E-16, 2.000000000000000000 ) ) ;
#112 = APPLICATION_CONTEXT ( 'configuration controlled 3d designs of mechanical parts and assemblies' ) ;
#113 = DIRECTION ( 'NONE',  ( -1.000000000000000000, 0.000000000000000000, 0.000000000000000000 ) ) ;
#114 = COORDINATED_UNIVERSAL_TIME_OFFSET ( 5, 0, .BEHIND. ) ;
#115 = CIRCLE ( 'NONE', #151, 3.175000000000001155 ) ;
#116 = CARTESIAN_POINT ( 'NONE',  ( 3.175000000000001155, 3.888253587292847561E-16, 0.000000000000000000 ) ) ;
#117 =( NAMED_UNIT ( * ) SI_UNIT ( $, .STERADIAN. ) SOLID_ANGLE_UNIT ( ) );
#118 = LOCAL_TIME ( 13, 14, 43.00000000000000000, #114 ) ;
#119 = PRODUCT_DEFINITION ( 'UNKNOWN', '', #110, #58 ) ;
#120 = AXIS2_PLACEMENT_3D ( 'NONE', #53, #169, #156 ) ;
#121 = ORIENTED_EDGE ( 'NONE', *, *, #32, .T. ) ;
#122 = CALENDAR_DATE ( 2022, 15, 3 ) ;
#123 = DIRECTION ( 'NONE',  ( 0.000000000000000000, 0.000000000000000000, 1.000000000000000000 ) ) ;
#124 = CARTESIAN_POINT ( 'NONE',  ( 0.000000000000000000, 0.000000000000000000, 2.000000000000000000 ) ) ;
#125 = CALENDAR_DATE ( 2022, 15, 3 ) ;
#126 = DIRECTION ( 'NONE',  ( -0.000000000000000000, -0.000000000000000000, -1.000000000000000000 ) ) ;
#127 = DATE_AND_TIME ( #66, #132 ) ;
#128 = AXIS2_PLACEMENT_3D ( 'NONE', #20, #171, #88 ) ;
#129 = PERSON_AND_ORGANIZATION_ROLE ( 'classification_officer' ) ;
#130 = FACE_OUTER_BOUND ( 'NONE', #108, .T. ) ;
#131 = APPROVAL ( #3, 'UNSPECIFIED' ) ;
#132 = LOCAL_TIME ( 13, 14, 43.00000000000000000, #19 ) ;
#133 = DIRECTION ( 'NONE',  ( 1.000000000000000000, 0.000000000000000000, -0.000000000000000000 ) ) ;
#134 = DIRECTION ( 'NONE',  ( -0.000000000000000000, -0.000000000000000000, -1.000000000000000000 ) ) ;
#135 = PERSON_AND_ORGANIZATION ( #65, #83 ) ;
#136 = LOCAL_TIME ( 13, 14, 43.00000000000000000, #97 ) ;
#137 = PERSON_AND_ORGANIZATION_ROLE ( 'design_owner' ) ;
#138 = CARTESIAN_POINT ( 'NONE',  ( 0.000000000000000000, 0.000000000000000000, 0.000000000000000000 ) ) ;
#139 = APPROVAL_STATUS ( 'not_yet_approved' ) ;
#140 = FACE_OUTER_BOUND ( 'NONE', #161, .T. ) ;
#141 = CARTESIAN_POINT ( 'NONE',  ( 3.175000000000001155, 3.888253587292847561E-16, 2.000000000000000000 ) ) ;
#142 = MANIFOLD_SOLID_BREP ( 'Boss-Extrude1', #60 ) ;
#143 = APPROVAL_DATE_TIME ( #8, #131 ) ;
#144 = APPLICATION_PROTOCOL_DEFINITION ( 'international standard', 'config_control_design', 1994, #112 ) ;
#145 = DIRECTION ( 'NONE',  ( 0.000000000000000000, 0.000000000000000000, 1.000000000000000000 ) ) ;
#146 = PERSON_AND_ORGANIZATION_ROLE ( 'creator' ) ;
#147 = ADVANCED_BREP_SHAPE_REPRESENTATION ( 'Web Model 45567_21015', ( #142, #120 ), #160 ) ;
#148 = ORIENTED_EDGE ( 'NONE', *, *, #163, .F. ) ;
#149 = DATE_AND_TIME ( #162, #10 ) ;
#150 = CC_DESIGN_PERSON_AND_ORGANIZATION_ASSIGNMENT ( #37, #49, ( #119 ) ) ;
#151 = AXIS2_PLACEMENT_3D ( 'NONE', #29, #16, #7 ) ;
#152 = UNCERTAINTY_MEASURE_WITH_UNIT (LENGTH_MEASURE( 1.000000000000000082E-05 ), #15, 'distance_accuracy_value', 'NONE');
#153 = PERSON_AND_ORGANIZATION ( #65, #83 ) ;
#154 = PLANE ( 'NONE',  #128 ) ;
#155 = DIRECTION ( 'NONE',  ( -0.000000000000000000, -0.000000000000000000, -1.000000000000000000 ) ) ;
#156 = DIRECTION ( 'NONE',  ( 1.000000000000000000, 0.000000000000000000, 0.000000000000000000 ) ) ;
#157 = CC_DESIGN_PERSON_AND_ORGANIZATION_ASSIGNMENT ( #85, #137, ( #36 ) ) ;
#158 = CC_DESIGN_APPROVAL ( #50, ( #87 ) ) ;
#159 = APPROVAL_ROLE ( '' ) ;
#160 =( GEOMETRIC_REPRESENTATION_CONTEXT ( 3 ) GLOBAL_UNCERTAINTY_ASSIGNED_CONTEXT ( ( #152 ) ) GLOBAL_UNIT_ASSIGNED_CONTEXT ( ( #15, #167, #117 ) ) REPRESENTATION_CONTEXT ( 'NONE', 'WORKASPACE' ) );
#161 = EDGE_LOOP ( 'NONE', ( #22, #24, #121, #4 ) ) ;
#162 = CALENDAR_DATE ( 2022, 15, 3 ) ;
#163 = EDGE_CURVE ( 'NONE', #35, #99, #18, .T. ) ;
#164 = APPROVAL_ROLE ( '' ) ;
#165 = EDGE_LOOP ( 'NONE', ( #5, #109 ) ) ;
#166 = ORIENTED_EDGE ( 'NONE', *, *, #93, .F. ) ;
#167 =( NAMED_UNIT ( * ) PLANE_ANGLE_UNIT ( ) SI_UNIT ( $, .RADIAN. ) );
#168 = DATE_TIME_ROLE ( 'classification_date' ) ;
#169 = DIRECTION ( 'NONE',  ( 0.000000000000000000, 0.000000000000000000, 1.000000000000000000 ) ) ;
#170 = PERSON_AND_ORGANIZATION ( #65, #83 ) ;
#171 = DIRECTION ( 'NONE',  ( 0.000000000000000000, 0.000000000000000000, 1.000000000000000000 ) ) ;
#172 = APPROVAL_STATUS ( 'not_yet_approved' ) ;
#173 = APPROVAL_DATE_TIME ( #94, #74 ) ;
#174 = AXIS2_PLACEMENT_3D ( 'NONE', #73, #126, #63 ) ;
#175 = ADVANCED_FACE ( 'NONE', ( #130 ), #64, .T. ) ;
ENDSEC;
END-ISO-10303-21;
