ISO-10303-21;
HEADER;
FILE_DESCRIPTION (( 'STEP AP203' ),
    '1' );
FILE_NAME ('Web Model 11905_11905.step',
    '2019-04-22T14:57:56',
    ( '' ),
    ( '' ),
    'SwSTEP 2.0',
    'SolidWorks 2018',
    '' );
FILE_SCHEMA (( 'CONFIG_CONTROL_DESIGN' ));
ENDSEC;

DATA;
#1 = ORIENTED_EDGE ( 'NONE', *, *, #97, .T. ) ;
#2 = DIRECTION ( 'NONE',  ( 0.0000000000000000000, 0.0000000000000000000, 1.000000000000000000 ) ) ;
#3 = APPROVAL_STATUS ( 'not_yet_approved' ) ;
#4 = CARTESIAN_POINT ( 'NONE',  ( 2.000000000000000000, 0.0000000000000000000, 0.0000000000000000000 ) ) ;
#5 =( NAMED_UNIT ( * ) SI_UNIT ( $, .STERADIAN. ) SOLID_ANGLE_UNIT ( ) );
#6 = VERTEX_POINT ( 'NONE', #43 ) ;
#7 = COORDINATED_UNIVERSAL_TIME_OFFSET ( 5, 0, .BEHIND. ) ;
#8 = APPROVAL_PERSON_ORGANIZATION ( #158, #40, #127 ) ;
#9 = COORDINATED_UNIVERSAL_TIME_OFFSET ( 5, 0, .BEHIND. ) ;
#10 = ADVANCED_FACE ( 'NONE', ( #171 ), #175, .T. ) ;
#11 = APPROVAL_ROLE ( '' ) ;
#12 = VECTOR ( 'NONE', #104, 1000.000000000000000 ) ;
#13 = VECTOR ( 'NONE', #17, 1000.000000000000000 ) ;
#14 = CARTESIAN_POINT ( 'NONE',  ( -2.000000000000000000, 0.0000000000000000000, 0.0000000000000000000 ) ) ;
#15 = DIRECTION ( 'NONE',  ( 0.0000000000000000000, 0.0000000000000000000, 1.000000000000000000 ) ) ;
#16 =( GEOMETRIC_REPRESENTATION_CONTEXT ( 3 ) GLOBAL_UNCERTAINTY_ASSIGNED_CONTEXT ( ( #38 ) ) GLOBAL_UNIT_ASSIGNED_CONTEXT ( ( #116, #151, #5 ) ) REPRESENTATION_CONTEXT ( 'NONE', 'WORKASPACE' ) );
#17 = DIRECTION ( 'NONE',  ( -1.000000000000000000, -0.0000000000000000000, -0.0000000000000000000 ) ) ;
#18 = CIRCLE ( 'NONE', #78, 20.00000000000000000 ) ;
#19 = ORIENTED_EDGE ( 'NONE', *, *, #110, .T. ) ;
#20 = CC_DESIGN_PERSON_AND_ORGANIZATION_ASSIGNMENT ( #89, #46, ( #55 ) ) ;
#21 = AXIS2_PLACEMENT_3D ( 'NONE', #85, #39, #15 ) ;
#22 = DIRECTION ( 'NONE',  ( 0.0000000000000000000, 0.0000000000000000000, -1.000000000000000000 ) ) ;
#23 = ORIENTED_EDGE ( 'NONE', *, *, #88, .T. ) ;
#24 = CARTESIAN_POINT ( 'NONE',  ( -2.000000000000000000, 0.0000000000000000000, 0.0000000000000000000 ) ) ;
#25 = CARTESIAN_POINT ( 'NONE',  ( 2.000000000000000000, 2.449293598294706513E-15, -20.00000000000000000 ) ) ;
#26 = SHAPE_DEFINITION_REPRESENTATION ( #81, #148 ) ;
#27 = DIRECTION ( 'NONE',  ( 0.0000000000000000000, 0.0000000000000000000, -1.000000000000000000 ) ) ;
#28 = APPROVAL_STATUS ( 'not_yet_approved' ) ;
#29 = APPLICATION_CONTEXT ( 'configuration controlled 3d designs of mechanical parts and assemblies' ) ;
#30 = EDGE_LOOP ( 'NONE', ( #160, #139, #19, #64 ) ) ;
#31 = DIRECTION ( 'NONE',  ( 0.0000000000000000000, 0.0000000000000000000, -1.000000000000000000 ) ) ;
#32 = ORIENTED_EDGE ( 'NONE', *, *, #70, .F. ) ;
#33 = APPROVAL_DATE_TIME ( #109, #114 ) ;
#34 = LOCAL_TIME ( 10, 57, 56.00000000000000000, #75 ) ;
#35 = ORIENTED_EDGE ( 'NONE', *, *, #169, .T. ) ;
#36 = ORIENTED_EDGE ( 'NONE', *, *, #66, .F. ) ;
#37 = DIRECTION ( 'NONE',  ( 1.000000000000000000, 0.0000000000000000000, 0.0000000000000000000 ) ) ;
#38 = UNCERTAINTY_MEASURE_WITH_UNIT (LENGTH_MEASURE( 1.000000000000000082E-05 ), #116, 'distance_accuracy_value', 'NONE');
#39 = DIRECTION ( 'NONE',  ( -1.000000000000000000, -0.0000000000000000000, -0.0000000000000000000 ) ) ;
#40 = APPROVAL ( #28, 'UNSPECIFIED' ) ;
#41 = DIRECTION ( 'NONE',  ( 1.000000000000000000, 0.0000000000000000000, 0.0000000000000000000 ) ) ;
#42 = ORIENTED_EDGE ( 'NONE', *, *, #70, .T. ) ;
#43 = CARTESIAN_POINT ( 'NONE',  ( -2.000000000000000000, 0.0000000000000000000, 20.00000000000000000 ) ) ;
#44 = APPROVAL_STATUS ( 'not_yet_approved' ) ;
#45 = CC_DESIGN_PERSON_AND_ORGANIZATION_ASSIGNMENT ( #174, #60, ( #107 ) ) ;
#46 = PERSON_AND_ORGANIZATION_ROLE ( 'creator' ) ;
#47 = VERTEX_POINT ( 'NONE', #162 ) ;
#48 = APPROVAL_DATE_TIME ( #136, #153 ) ;
#49 = PERSON_AND_ORGANIZATION_ROLE ( 'classification_officer' ) ;
#50 = AXIS2_PLACEMENT_3D ( 'NONE', #4, #71, #155 ) ;
#51 = DESIGN_CONTEXT ( 'detailed design', #74, 'design' ) ;
#52 = AXIS2_PLACEMENT_3D ( 'NONE', #93, #2, #115 ) ;
#53 = CC_DESIGN_APPROVAL ( #40, ( #55 ) ) ;
#54 = DATE_AND_TIME ( #59, #94 ) ;
#55 = PRODUCT_DEFINITION ( 'UNKNOWN', '', #107, #51 ) ;
#56 = CARTESIAN_POINT ( 'NONE',  ( -2.000000000000000000, 2.449293598294706513E-15, -20.00000000000000000 ) ) ;
#57 = CARTESIAN_POINT ( 'NONE',  ( 2.000000000000000000, 2.449293598294706513E-15, -20.00000000000000000 ) ) ;
#58 = CC_DESIGN_DATE_AND_TIME_ASSIGNMENT ( #118, #126, ( #55 ) ) ;
#59 = CALENDAR_DATE ( 2019, 22, 4 ) ;
#60 = PERSON_AND_ORGANIZATION_ROLE ( 'creator' ) ;
#61 = PERSON_AND_ORGANIZATION_ROLE ( 'design_supplier' ) ;
#62 = CC_DESIGN_PERSON_AND_ORGANIZATION_ASSIGNMENT ( #172, #61, ( #107 ) ) ;
#63 = CC_DESIGN_DATE_AND_TIME_ASSIGNMENT ( #96, #113, ( #156 ) ) ;
#64 = ORIENTED_EDGE ( 'NONE', *, *, #66, .T. ) ;
#65 = CYLINDRICAL_SURFACE ( 'NONE', #21, 20.00000000000000000 ) ;
#66 = EDGE_CURVE ( 'NONE', #6, #69, #18, .T. ) ;
#67 = LOCAL_TIME ( 10, 57, 56.00000000000000000, #7 ) ;
#68 = PRODUCT_RELATED_PRODUCT_CATEGORY ( 'detail', '', ( #167 ) ) ;
#69 = VERTEX_POINT ( 'NONE', #56 ) ;
#70 = EDGE_CURVE ( 'NONE', #69, #6, #100, .T. ) ;
#71 = DIRECTION ( 'NONE',  ( -1.000000000000000000, -0.0000000000000000000, -0.0000000000000000000 ) ) ;
#72 = PERSON_AND_ORGANIZATION_ROLE ( 'design_owner' ) ;
#73 = CC_DESIGN_SECURITY_CLASSIFICATION ( #156, ( #107 ) ) ;
#74 = APPLICATION_CONTEXT ( 'configuration controlled 3d designs of mechanical parts and assemblies' ) ;
#75 = COORDINATED_UNIVERSAL_TIME_OFFSET ( 5, 0, .BEHIND. ) ;
#76 = PLANE ( 'NONE',  #108 ) ;
#77 = DIRECTION ( 'NONE',  ( 0.0000000000000000000, 0.0000000000000000000, -1.000000000000000000 ) ) ;
#78 = AXIS2_PLACEMENT_3D ( 'NONE', #123, #37, #161 ) ;
#79 = FACE_OUTER_BOUND ( 'NONE', #173, .T. ) ;
#80 = VERTEX_POINT ( 'NONE', #57 ) ;
#81 = PRODUCT_DEFINITION_SHAPE ( 'NONE', 'NONE',  #55 ) ;
#82 = LINE ( 'NONE', #164, #13 ) ;
#83 = CALENDAR_DATE ( 2019, 22, 4 ) ;
#84 = CYLINDRICAL_SURFACE ( 'NONE', #50, 20.00000000000000000 ) ;
#85 = CARTESIAN_POINT ( 'NONE',  ( 2.000000000000000000, 0.0000000000000000000, 0.0000000000000000000 ) ) ;
#86 = DIRECTION ( 'NONE',  ( 1.000000000000000000, 0.0000000000000000000, 0.0000000000000000000 ) ) ;
#87 = LOCAL_TIME ( 10, 57, 56.00000000000000000, #101 ) ;
#88 = EDGE_CURVE ( 'NONE', #80, #47, #122, .T. ) ;
#89 = PERSON_AND_ORGANIZATION ( #140, #141 ) ;
#90 = DIRECTION ( 'NONE',  ( 1.000000000000000000, 0.0000000000000000000, 0.0000000000000000000 ) ) ;
#91 = PERSON_AND_ORGANIZATION ( #140, #141 ) ;
#92 = AXIS2_PLACEMENT_3D ( 'NONE', #150, #41, #22 ) ;
#93 = CARTESIAN_POINT ( 'NONE',  ( 0.0000000000000000000, 0.0000000000000000000, 0.0000000000000000000 ) ) ;
#94 = LOCAL_TIME ( 10, 57, 56.00000000000000000, #129 ) ;
#95 = FACE_OUTER_BOUND ( 'NONE', #133, .T. ) ;
#96 = DATE_AND_TIME ( #83, #67 ) ;
#97 = EDGE_CURVE ( 'NONE', #47, #80, #119, .T. ) ;
#98 = ADVANCED_FACE ( 'NONE', ( #95 ), #65, .T. ) ;
#99 = AXIS2_PLACEMENT_3D ( 'NONE', #149, #86, #77 ) ;
#100 = CIRCLE ( 'NONE', #106, 20.00000000000000000 ) ;
#101 = COORDINATED_UNIVERSAL_TIME_OFFSET ( 5, 0, .BEHIND. ) ;
#102 = APPLICATION_PROTOCOL_DEFINITION ( 'international standard', 'config_control_design', 1994, #74 ) ;
#103 = PERSON_AND_ORGANIZATION ( #140, #141 ) ;
#104 = DIRECTION ( 'NONE',  ( -1.000000000000000000, -0.0000000000000000000, -0.0000000000000000000 ) ) ;
#105 = ORIENTED_EDGE ( 'NONE', *, *, #88, .F. ) ;
#106 = AXIS2_PLACEMENT_3D ( 'NONE', #24, #134, #124 ) ;
#107 = PRODUCT_DEFINITION_FORMATION_WITH_SPECIFIED_SOURCE ( 'ANY', '', #167, .NOT_KNOWN. ) ;
#108 = AXIS2_PLACEMENT_3D ( 'NONE', #14, #128, #31 ) ;
#109 = DATE_AND_TIME ( #137, #34 ) ;
#110 = EDGE_CURVE ( 'NONE', #47, #6, #82, .T. ) ;
#111 = APPROVAL_PERSON_ORGANIZATION ( #147, #114, #11 ) ;
#112 = EDGE_LOOP ( 'NONE', ( #1, #23 ) ) ;
#113 = DATE_TIME_ROLE ( 'classification_date' ) ;
#114 = APPROVAL ( #3, 'UNSPECIFIED' ) ;
#115 = DIRECTION ( 'NONE',  ( 1.000000000000000000, 0.0000000000000000000, 0.0000000000000000000 ) ) ;
#116 =( LENGTH_UNIT ( ) NAMED_UNIT ( * ) SI_UNIT ( .MILLI., .METRE. ) );
#117 = CC_DESIGN_PERSON_AND_ORGANIZATION_ASSIGNMENT ( #163, #72, ( #167 ) ) ;
#118 = DATE_AND_TIME ( #130, #152 ) ;
#119 = CIRCLE ( 'NONE', #131, 20.00000000000000000 ) ;
#120 = CALENDAR_DATE ( 2019, 22, 4 ) ;
#121 = LINE ( 'NONE', #25, #12 ) ;
#122 = CIRCLE ( 'NONE', #99, 20.00000000000000000 ) ;
#123 = CARTESIAN_POINT ( 'NONE',  ( -2.000000000000000000, 0.0000000000000000000, 0.0000000000000000000 ) ) ;
#124 = DIRECTION ( 'NONE',  ( 0.0000000000000000000, 0.0000000000000000000, -1.000000000000000000 ) ) ;
#125 = FACE_OUTER_BOUND ( 'NONE', #30, .T. ) ;
#126 = DATE_TIME_ROLE ( 'creation_date' ) ;
#127 = APPROVAL_ROLE ( '' ) ;
#128 = DIRECTION ( 'NONE',  ( 1.000000000000000000, 0.0000000000000000000, 0.0000000000000000000 ) ) ;
#129 = COORDINATED_UNIVERSAL_TIME_OFFSET ( 5, 0, .BEHIND. ) ;
#130 = CALENDAR_DATE ( 2019, 22, 4 ) ;
#131 = AXIS2_PLACEMENT_3D ( 'NONE', #168, #90, #27 ) ;
#132 = ADVANCED_FACE ( 'NONE', ( #79 ), #76, .F. ) ;
#133 = EDGE_LOOP ( 'NONE', ( #105, #35, #42, #157 ) ) ;
#134 = DIRECTION ( 'NONE',  ( 1.000000000000000000, 0.0000000000000000000, 0.0000000000000000000 ) ) ;
#135 = APPROVAL_DATE_TIME ( #54, #40 ) ;
#136 = DATE_AND_TIME ( #120, #87 ) ;
#137 = CALENDAR_DATE ( 2019, 22, 4 ) ;
#138 = MECHANICAL_CONTEXT ( 'NONE', #29, 'mechanical' ) ;
#139 = ORIENTED_EDGE ( 'NONE', *, *, #97, .F. ) ;
#140 = PERSON ( 'UNSPECIFIED', 'UNSPECIFIED', 'UNSPECIFIED', ('UNSPECIFIED'), ('UNSPECIFIED'), ('UNSPECIFIED') ) ;
#141 = ORGANIZATION ( 'UNSPECIFIED', 'UNSPECIFIED', '' ) ;
#142 = CLOSED_SHELL ( 'NONE', ( #98, #145, #10, #132 ) ) ;
#143 = CC_DESIGN_PERSON_AND_ORGANIZATION_ASSIGNMENT ( #103, #49, ( #156 ) ) ;
#144 = APPROVAL_PERSON_ORGANIZATION ( #91, #153, #170 ) ;
#145 = ADVANCED_FACE ( 'NONE', ( #125 ), #84, .T. ) ;
#146 = CC_DESIGN_APPROVAL ( #114, ( #107 ) ) ;
#147 = PERSON_AND_ORGANIZATION ( #140, #141 ) ;
#148 = ADVANCED_BREP_SHAPE_REPRESENTATION ( 'Web Model 11905_11905', ( #159, #52 ), #16 ) ;
#149 = CARTESIAN_POINT ( 'NONE',  ( 2.000000000000000000, 0.0000000000000000000, 0.0000000000000000000 ) ) ;
#150 = CARTESIAN_POINT ( 'NONE',  ( 2.000000000000000000, 0.0000000000000000000, 0.0000000000000000000 ) ) ;
#151 =( NAMED_UNIT ( * ) PLANE_ANGLE_UNIT ( ) SI_UNIT ( $, .RADIAN. ) );
#152 = LOCAL_TIME ( 10, 57, 56.00000000000000000, #9 ) ;
#153 = APPROVAL ( #44, 'UNSPECIFIED' ) ;
#154 = SECURITY_CLASSIFICATION_LEVEL ( 'unclassified' ) ;
#155 = DIRECTION ( 'NONE',  ( 0.0000000000000000000, 0.0000000000000000000, 1.000000000000000000 ) ) ;
#156 = SECURITY_CLASSIFICATION ( '', '', #154 ) ;
#157 = ORIENTED_EDGE ( 'NONE', *, *, #110, .F. ) ;
#158 = PERSON_AND_ORGANIZATION ( #140, #141 ) ;
#159 = MANIFOLD_SOLID_BREP ( '47835-1-solid1', #142 ) ;
#160 = ORIENTED_EDGE ( 'NONE', *, *, #169, .F. ) ;
#161 = DIRECTION ( 'NONE',  ( 0.0000000000000000000, 0.0000000000000000000, -1.000000000000000000 ) ) ;
#162 = CARTESIAN_POINT ( 'NONE',  ( 2.000000000000000000, 0.0000000000000000000, 20.00000000000000000 ) ) ;
#163 = PERSON_AND_ORGANIZATION ( #140, #141 ) ;
#164 = CARTESIAN_POINT ( 'NONE',  ( 2.000000000000000000, 0.0000000000000000000, 20.00000000000000000 ) ) ;
#165 = CC_DESIGN_APPROVAL ( #153, ( #156 ) ) ;
#166 = APPLICATION_PROTOCOL_DEFINITION ( 'international standard', 'config_control_design', 1994, #29 ) ;
#167 = PRODUCT ( 'Web Model 11905_11905', 'Web Model 11905_11905', '', ( #138 ) ) ;
#168 = CARTESIAN_POINT ( 'NONE',  ( 2.000000000000000000, 0.0000000000000000000, 0.0000000000000000000 ) ) ;
#169 = EDGE_CURVE ( 'NONE', #80, #69, #121, .T. ) ;
#170 = APPROVAL_ROLE ( '' ) ;
#171 = FACE_OUTER_BOUND ( 'NONE', #112, .T. ) ;
#172 = PERSON_AND_ORGANIZATION ( #140, #141 ) ;
#173 = EDGE_LOOP ( 'NONE', ( #36, #32 ) ) ;
#174 = PERSON_AND_ORGANIZATION ( #140, #141 ) ;
#175 = PLANE ( 'NONE',  #92 ) ;
ENDSEC;
END-ISO-10303-21;
