ISO-10303-21;
HEADER;
FILE_DESCRIPTION (( 'STEP AP203' ),
    '1' );
FILE_NAME ('Web Model 11904_11904.step',
    '2019-04-22T14:57:34',
    ( '' ),
    ( '' ),
    'SwSTEP 2.0',
    'SolidWorks 2018',
    '' );
FILE_SCHEMA (( 'CONFIG_CONTROL_DESIGN' ));
ENDSEC;

DATA;
#1 = PRODUCT_DEFINITION_SHAPE ( 'NONE', 'NONE',  #41 ) ;
#2 = CC_DESIGN_DATE_AND_TIME_ASSIGNMENT ( #21, #172, ( #41 ) ) ;
#3 = VERTEX_POINT ( 'NONE', #43 ) ;
#4 = APPROVAL_PERSON_ORGANIZATION ( #73, #122, #117 ) ;
#5 = EDGE_CURVE ( 'NONE', #105, #3, #129, .T. ) ;
#6 = CARTESIAN_POINT ( 'NONE',  ( -2.000000000000000000, 0.0000000000000000000, 0.0000000000000000000 ) ) ;
#7 = CC_DESIGN_APPROVAL ( #109, ( #48 ) ) ;
#8 = PLANE ( 'NONE',  #158 ) ;
#9 = PRODUCT_DEFINITION_FORMATION_WITH_SPECIFIED_SOURCE ( 'ANY', '', #81, .NOT_KNOWN. ) ;
#10 = VECTOR ( 'NONE', #18, 1000.000000000000000 ) ;
#11 = PERSON_AND_ORGANIZATION_ROLE ( 'design_owner' ) ;
#12 = ORIENTED_EDGE ( 'NONE', *, *, #13, .T. ) ;
#13 = EDGE_CURVE ( 'NONE', #79, #105, #112, .T. ) ;
#14 = CIRCLE ( 'NONE', #121, 15.00000000000000000 ) ;
#15 = CC_DESIGN_SECURITY_CLASSIFICATION ( #48, ( #9 ) ) ;
#16 = FACE_OUTER_BOUND ( 'NONE', #23, .T. ) ;
#17 = DIRECTION ( 'NONE',  ( 0.0000000000000000000, 0.0000000000000000000, -1.000000000000000000 ) ) ;
#18 = DIRECTION ( 'NONE',  ( -1.000000000000000000, -0.0000000000000000000, -0.0000000000000000000 ) ) ;
#19 = DATE_AND_TIME ( #93, #124 ) ;
#20 = VECTOR ( 'NONE', #100, 1000.000000000000000 ) ;
#21 = DATE_AND_TIME ( #143, #157 ) ;
#22 = APPROVAL_PERSON_ORGANIZATION ( #59, #53, #52 ) ;
#23 = EDGE_LOOP ( 'NONE', ( #137, #173, #116, #104 ) ) ;
#24 = ADVANCED_FACE ( 'NONE', ( #16 ), #85, .T. ) ;
#25 = ADVANCED_FACE ( 'NONE', ( #54 ), #50, .T. ) ;
#26 = PRODUCT_RELATED_PRODUCT_CATEGORY ( 'detail', '', ( #81 ) ) ;
#27 = SHAPE_DEFINITION_REPRESENTATION ( #1, #56 ) ;
#28 = CARTESIAN_POINT ( 'NONE',  ( 2.000000000000000000, 0.0000000000000000000, 15.00000000000000000 ) ) ;
#29 = LOCAL_TIME ( 10, 57, 34.00000000000000000, #151 ) ;
#30 = DIRECTION ( 'NONE',  ( 0.0000000000000000000, 0.0000000000000000000, 1.000000000000000000 ) ) ;
#31 = ORIENTED_EDGE ( 'NONE', *, *, #5, .T. ) ;
#32 =( NAMED_UNIT ( * ) SI_UNIT ( $, .STERADIAN. ) SOLID_ANGLE_UNIT ( ) );
#33 = CARTESIAN_POINT ( 'NONE',  ( 2.000000000000000000, 1.836970198721029589E-15, -15.00000000000000000 ) ) ;
#34 = CALENDAR_DATE ( 2019, 22, 4 ) ;
#35 = DIRECTION ( 'NONE',  ( 0.0000000000000000000, 0.0000000000000000000, 1.000000000000000000 ) ) ;
#36 = DATE_TIME_ROLE ( 'classification_date' ) ;
#37 = PERSON_AND_ORGANIZATION ( #145, #130 ) ;
#38 = EDGE_CURVE ( 'NONE', #165, #3, #69, .T. ) ;
#39 = CALENDAR_DATE ( 2019, 22, 4 ) ;
#40 = ORIENTED_EDGE ( 'NONE', *, *, #45, .F. ) ;
#41 = PRODUCT_DEFINITION ( 'UNKNOWN', '', #9, #146 ) ;
#42 = EDGE_CURVE ( 'NONE', #165, #79, #149, .T. ) ;
#43 = CARTESIAN_POINT ( 'NONE',  ( -2.000000000000000000, 1.836970198721029589E-15, -15.00000000000000000 ) ) ;
#44 = DIRECTION ( 'NONE',  ( 1.000000000000000000, 0.0000000000000000000, 0.0000000000000000000 ) ) ;
#45 = EDGE_CURVE ( 'NONE', #79, #165, #14, .T. ) ;
#46 = CARTESIAN_POINT ( 'NONE',  ( 2.000000000000000000, 0.0000000000000000000, 0.0000000000000000000 ) ) ;
#47 = DATE_AND_TIME ( #96, #127 ) ;
#48 = SECURITY_CLASSIFICATION ( '', '', #175 ) ;
#49 = APPROVAL_PERSON_ORGANIZATION ( #131, #109, #92 ) ;
#50 = CYLINDRICAL_SURFACE ( 'NONE', #60, 15.00000000000000000 ) ;
#51 = APPLICATION_PROTOCOL_DEFINITION ( 'international standard', 'config_control_design', 1994, #78 ) ;
#52 = APPROVAL_ROLE ( '' ) ;
#53 = APPROVAL ( #118, 'UNSPECIFIED' ) ;
#54 = FACE_OUTER_BOUND ( 'NONE', #134, .T. ) ;
#55 = AXIS2_PLACEMENT_3D ( 'NONE', #114, #168, #153 ) ;
#56 = ADVANCED_BREP_SHAPE_REPRESENTATION ( 'Web Model 11904_11904', ( #159, #67 ), #97 ) ;
#57 = APPROVAL_DATE_TIME ( #111, #122 ) ;
#58 = DIRECTION ( 'NONE',  ( 0.0000000000000000000, 0.0000000000000000000, -1.000000000000000000 ) ) ;
#59 = PERSON_AND_ORGANIZATION ( #145, #130 ) ;
#60 = AXIS2_PLACEMENT_3D ( 'NONE', #71, #89, #30 ) ;
#61 = DIRECTION ( 'NONE',  ( 1.000000000000000000, 0.0000000000000000000, 0.0000000000000000000 ) ) ;
#62 = PERSON_AND_ORGANIZATION_ROLE ( 'design_supplier' ) ;
#63 = PERSON_AND_ORGANIZATION_ROLE ( 'creator' ) ;
#64 = EDGE_LOOP ( 'NONE', ( #84, #174 ) ) ;
#65 = CC_DESIGN_PERSON_AND_ORGANIZATION_ASSIGNMENT ( #108, #169, ( #9 ) ) ;
#66 = CARTESIAN_POINT ( 'NONE',  ( 2.000000000000000000, 0.0000000000000000000, 0.0000000000000000000 ) ) ;
#67 = AXIS2_PLACEMENT_3D ( 'NONE', #87, #35, #141 ) ;
#68 = PERSON_AND_ORGANIZATION ( #145, #130 ) ;
#69 = LINE ( 'NONE', #33, #10 ) ;
#70 = DIRECTION ( 'NONE',  ( 0.0000000000000000000, 0.0000000000000000000, -1.000000000000000000 ) ) ;
#71 = CARTESIAN_POINT ( 'NONE',  ( 2.000000000000000000, 0.0000000000000000000, 0.0000000000000000000 ) ) ;
#72 = DIRECTION ( 'NONE',  ( 1.000000000000000000, 0.0000000000000000000, 0.0000000000000000000 ) ) ;
#73 = PERSON_AND_ORGANIZATION ( #145, #130 ) ;
#74 = CC_DESIGN_PERSON_AND_ORGANIZATION_ASSIGNMENT ( #76, #63, ( #41 ) ) ;
#75 = APPLICATION_CONTEXT ( 'configuration controlled 3d designs of mechanical parts and assemblies' ) ;
#76 = PERSON_AND_ORGANIZATION ( #145, #130 ) ;
#77 = ORIENTED_EDGE ( 'NONE', *, *, #38, .F. ) ;
#78 = APPLICATION_CONTEXT ( 'configuration controlled 3d designs of mechanical parts and assemblies' ) ;
#79 = VERTEX_POINT ( 'NONE', #88 ) ;
#80 = AXIS2_PLACEMENT_3D ( 'NONE', #66, #102, #166 ) ;
#81 = PRODUCT ( 'Web Model 11904_11904', 'Web Model 11904_11904', '', ( #170 ) ) ;
#82 = DATE_AND_TIME ( #34, #29 ) ;
#83 = FACE_OUTER_BOUND ( 'NONE', #123, .T. ) ;
#84 = ORIENTED_EDGE ( 'NONE', *, *, #5, .F. ) ;
#85 = CYLINDRICAL_SURFACE ( 'NONE', #80, 15.00000000000000000 ) ;
#86 = AXIS2_PLACEMENT_3D ( 'NONE', #6, #44, #135 ) ;
#87 = CARTESIAN_POINT ( 'NONE',  ( 0.0000000000000000000, 0.0000000000000000000, 0.0000000000000000000 ) ) ;
#88 = CARTESIAN_POINT ( 'NONE',  ( 2.000000000000000000, 0.0000000000000000000, 15.00000000000000000 ) ) ;
#89 = DIRECTION ( 'NONE',  ( -1.000000000000000000, -0.0000000000000000000, -0.0000000000000000000 ) ) ;
#90 = CARTESIAN_POINT ( 'NONE',  ( -2.000000000000000000, 0.0000000000000000000, 15.00000000000000000 ) ) ;
#91 = UNCERTAINTY_MEASURE_WITH_UNIT (LENGTH_MEASURE( 1.000000000000000082E-05 ), #139, 'distance_accuracy_value', 'NONE');
#92 = APPROVAL_ROLE ( '' ) ;
#93 = CALENDAR_DATE ( 2019, 22, 4 ) ;
#94 = CC_DESIGN_PERSON_AND_ORGANIZATION_ASSIGNMENT ( #99, #11, ( #81 ) ) ;
#95 = APPLICATION_PROTOCOL_DEFINITION ( 'international standard', 'config_control_design', 1994, #75 ) ;
#96 = CALENDAR_DATE ( 2019, 22, 4 ) ;
#97 =( GEOMETRIC_REPRESENTATION_CONTEXT ( 3 ) GLOBAL_UNCERTAINTY_ASSIGNED_CONTEXT ( ( #91 ) ) GLOBAL_UNIT_ASSIGNED_CONTEXT ( ( #139, #138, #32 ) ) REPRESENTATION_CONTEXT ( 'NONE', 'WORKASPACE' ) );
#98 = LOCAL_TIME ( 10, 57, 34.00000000000000000, #162 ) ;
#99 = PERSON_AND_ORGANIZATION ( #145, #130 ) ;
#100 = DIRECTION ( 'NONE',  ( -1.000000000000000000, -0.0000000000000000000, -0.0000000000000000000 ) ) ;
#101 = APPROVAL_DATE_TIME ( #82, #109 ) ;
#102 = DIRECTION ( 'NONE',  ( -1.000000000000000000, -0.0000000000000000000, -0.0000000000000000000 ) ) ;
#103 = CC_DESIGN_PERSON_AND_ORGANIZATION_ASSIGNMENT ( #68, #62, ( #9 ) ) ;
#104 = ORIENTED_EDGE ( 'NONE', *, *, #13, .F. ) ;
#105 = VERTEX_POINT ( 'NONE', #90 ) ;
#106 = DIRECTION ( 'NONE',  ( 0.0000000000000000000, 0.0000000000000000000, -1.000000000000000000 ) ) ;
#107 = APPROVAL_STATUS ( 'not_yet_approved' ) ;
#108 = PERSON_AND_ORGANIZATION ( #145, #130 ) ;
#109 = APPROVAL ( #144, 'UNSPECIFIED' ) ;
#110 = CC_DESIGN_DATE_AND_TIME_ASSIGNMENT ( #19, #36, ( #48 ) ) ;
#111 = DATE_AND_TIME ( #39, #98 ) ;
#112 = LINE ( 'NONE', #28, #20 ) ;
#113 = CARTESIAN_POINT ( 'NONE',  ( 2.000000000000000000, 0.0000000000000000000, 0.0000000000000000000 ) ) ;
#114 = CARTESIAN_POINT ( 'NONE',  ( 2.000000000000000000, 0.0000000000000000000, 0.0000000000000000000 ) ) ;
#115 = ORIENTED_EDGE ( 'NONE', *, *, #45, .T. ) ;
#116 = ORIENTED_EDGE ( 'NONE', *, *, #119, .T. ) ;
#117 = APPROVAL_ROLE ( '' ) ;
#118 = APPROVAL_STATUS ( 'not_yet_approved' ) ;
#119 = EDGE_CURVE ( 'NONE', #3, #105, #147, .T. ) ;
#120 = COORDINATED_UNIVERSAL_TIME_OFFSET ( 5, 0, .BEHIND. ) ;
#121 = AXIS2_PLACEMENT_3D ( 'NONE', #46, #72, #17 ) ;
#122 = APPROVAL ( #107, 'UNSPECIFIED' ) ;
#123 = EDGE_LOOP ( 'NONE', ( #115, #161 ) ) ;
#124 = LOCAL_TIME ( 10, 57, 34.00000000000000000, #120 ) ;
#125 = CARTESIAN_POINT ( 'NONE',  ( -2.000000000000000000, 0.0000000000000000000, 0.0000000000000000000 ) ) ;
#126 = PLANE ( 'NONE',  #55 ) ;
#127 = LOCAL_TIME ( 10, 57, 34.00000000000000000, #164 ) ;
#128 = APPROVAL_DATE_TIME ( #47, #53 ) ;
#129 = CIRCLE ( 'NONE', #86, 15.00000000000000000 ) ;
#130 = ORGANIZATION ( 'UNSPECIFIED', 'UNSPECIFIED', '' ) ;
#131 = PERSON_AND_ORGANIZATION ( #145, #130 ) ;
#132 = ADVANCED_FACE ( 'NONE', ( #156 ), #8, .F. ) ;
#133 = COORDINATED_UNIVERSAL_TIME_OFFSET ( 5, 0, .BEHIND. ) ;
#134 = EDGE_LOOP ( 'NONE', ( #77, #40, #12, #31 ) ) ;
#135 = DIRECTION ( 'NONE',  ( 0.0000000000000000000, 0.0000000000000000000, -1.000000000000000000 ) ) ;
#136 = DIRECTION ( 'NONE',  ( 1.000000000000000000, 0.0000000000000000000, 0.0000000000000000000 ) ) ;
#137 = ORIENTED_EDGE ( 'NONE', *, *, #42, .F. ) ;
#138 =( NAMED_UNIT ( * ) PLANE_ANGLE_UNIT ( ) SI_UNIT ( $, .RADIAN. ) );
#139 =( LENGTH_UNIT ( ) NAMED_UNIT ( * ) SI_UNIT ( .MILLI., .METRE. ) );
#140 = CARTESIAN_POINT ( 'NONE',  ( -2.000000000000000000, 0.0000000000000000000, 0.0000000000000000000 ) ) ;
#141 = DIRECTION ( 'NONE',  ( 1.000000000000000000, 0.0000000000000000000, 0.0000000000000000000 ) ) ;
#142 = ADVANCED_FACE ( 'NONE', ( #83 ), #126, .T. ) ;
#143 = CALENDAR_DATE ( 2019, 22, 4 ) ;
#144 = APPROVAL_STATUS ( 'not_yet_approved' ) ;
#145 = PERSON ( 'UNSPECIFIED', 'UNSPECIFIED', 'UNSPECIFIED', ('UNSPECIFIED'), ('UNSPECIFIED'), ('UNSPECIFIED') ) ;
#146 = DESIGN_CONTEXT ( 'detailed design', #78, 'design' ) ;
#147 = CIRCLE ( 'NONE', #155, 15.00000000000000000 ) ;
#148 = AXIS2_PLACEMENT_3D ( 'NONE', #113, #136, #106 ) ;
#149 = CIRCLE ( 'NONE', #148, 15.00000000000000000 ) ;
#150 = CLOSED_SHELL ( 'NONE', ( #24, #25, #142, #132 ) ) ;
#151 = COORDINATED_UNIVERSAL_TIME_OFFSET ( 5, 0, .BEHIND. ) ;
#152 = CC_DESIGN_APPROVAL ( #53, ( #41 ) ) ;
#153 = DIRECTION ( 'NONE',  ( 0.0000000000000000000, 0.0000000000000000000, -1.000000000000000000 ) ) ;
#154 = DIRECTION ( 'NONE',  ( 1.000000000000000000, 0.0000000000000000000, 0.0000000000000000000 ) ) ;
#155 = AXIS2_PLACEMENT_3D ( 'NONE', #125, #154, #58 ) ;
#156 = FACE_OUTER_BOUND ( 'NONE', #64, .T. ) ;
#157 = LOCAL_TIME ( 10, 57, 34.00000000000000000, #133 ) ;
#158 = AXIS2_PLACEMENT_3D ( 'NONE', #140, #61, #70 ) ;
#159 = MANIFOLD_SOLID_BREP ( '47834-1-solid1', #150 ) ;
#160 = PERSON_AND_ORGANIZATION_ROLE ( 'classification_officer' ) ;
#161 = ORIENTED_EDGE ( 'NONE', *, *, #42, .T. ) ;
#162 = COORDINATED_UNIVERSAL_TIME_OFFSET ( 5, 0, .BEHIND. ) ;
#163 = CC_DESIGN_APPROVAL ( #122, ( #9 ) ) ;
#164 = COORDINATED_UNIVERSAL_TIME_OFFSET ( 5, 0, .BEHIND. ) ;
#165 = VERTEX_POINT ( 'NONE', #167 ) ;
#166 = DIRECTION ( 'NONE',  ( 0.0000000000000000000, 0.0000000000000000000, 1.000000000000000000 ) ) ;
#167 = CARTESIAN_POINT ( 'NONE',  ( 2.000000000000000000, 1.836970198721029589E-15, -15.00000000000000000 ) ) ;
#168 = DIRECTION ( 'NONE',  ( 1.000000000000000000, 0.0000000000000000000, 0.0000000000000000000 ) ) ;
#169 = PERSON_AND_ORGANIZATION_ROLE ( 'creator' ) ;
#170 = MECHANICAL_CONTEXT ( 'NONE', #75, 'mechanical' ) ;
#171 = CC_DESIGN_PERSON_AND_ORGANIZATION_ASSIGNMENT ( #37, #160, ( #48 ) ) ;
#172 = DATE_TIME_ROLE ( 'creation_date' ) ;
#173 = ORIENTED_EDGE ( 'NONE', *, *, #38, .T. ) ;
#174 = ORIENTED_EDGE ( 'NONE', *, *, #119, .F. ) ;
#175 = SECURITY_CLASSIFICATION_LEVEL ( 'unclassified' ) ;
ENDSEC;
END-ISO-10303-21;
