ISO-10303-21;
HEADER;
FILE_DESCRIPTION (( 'STEP AP203' ),
    '1' );
FILE_NAME ('Web Model 20017_20023.step',
    '2022-03-21T20:29:40',
    ( '' ),
    ( '' ),
    'SwSTEP 2.0',
    'SolidWorks 2021',
    '' );
FILE_SCHEMA (( 'CONFIG_CONTROL_DESIGN' ));
ENDSEC;

DATA;
#1 = CARTESIAN_POINT ( 'NONE',  ( 0.000000000000000000, 0.000000000000000000, 1.000000000000000000 ) ) ;
#2 = PERSON_AND_ORGANIZATION_ROLE ( 'classification_officer' ) ;
#3 = CC_DESIGN_DATE_AND_TIME_ASSIGNMENT ( #108, #123, ( #100 ) ) ;
#4 = DIRECTION ( 'NONE',  ( 0.000000000000000000, 0.000000000000000000, 1.000000000000000000 ) ) ;
#5 = CC_DESIGN_APPROVAL ( #58, ( #113 ) ) ;
#6 = EDGE_CURVE ( 'NONE', #139, #126, #150, .T. ) ;
#7 = ORIENTED_EDGE ( 'NONE', *, *, #45, .T. ) ;
#8 = EDGE_LOOP ( 'NONE', ( #32, #62 ) ) ;
#9 = AXIS2_PLACEMENT_3D ( 'NONE', #1, #53, #26 ) ;
#10 = APPROVAL_DATE_TIME ( #131, #58 ) ;
#11 = CARTESIAN_POINT ( 'NONE',  ( 25.39999999999999858, 3.110602869834276865E-15, 1.000000000000000000 ) ) ;
#12 = APPROVAL_ROLE ( '' ) ;
#13 = COORDINATED_UNIVERSAL_TIME_OFFSET ( 5, 0, .BEHIND. ) ;
#14 = VECTOR ( 'NONE', #70, 1000.000000000000000 ) ;
#15 = DIRECTION ( 'NONE',  ( -1.000000000000000000, 0.000000000000000000, 0.000000000000000000 ) ) ;
#16 = APPROVAL_ROLE ( '' ) ;
#17 = CARTESIAN_POINT ( 'NONE',  ( 0.000000000000000000, 0.000000000000000000, 0.000000000000000000 ) ) ;
#18 = AXIS2_PLACEMENT_3D ( 'NONE', #22, #92, #151 ) ;
#19 = ORIENTED_EDGE ( 'NONE', *, *, #45, .F. ) ;
#20 = APPROVAL_PERSON_ORGANIZATION ( #106, #67, #12 ) ;
#21 = ORIENTED_EDGE ( 'NONE', *, *, #118, .F. ) ;
#22 = CARTESIAN_POINT ( 'NONE',  ( 0.000000000000000000, 0.000000000000000000, 0.000000000000000000 ) ) ;
#23 = MANIFOLD_SOLID_BREP ( 'Boss-Extrude1', #82 ) ;
#24 = ORGANIZATION ( 'UNSPECIFIED', 'UNSPECIFIED', '' ) ;
#25 = PERSON_AND_ORGANIZATION ( #137, #24 ) ;
#26 = DIRECTION ( 'NONE',  ( -1.000000000000000000, 0.000000000000000000, 0.000000000000000000 ) ) ;
#27 = DATE_AND_TIME ( #164, #39 ) ;
#28 = DIRECTION ( 'NONE',  ( 0.000000000000000000, 0.000000000000000000, 1.000000000000000000 ) ) ;
#29 = PERSON_AND_ORGANIZATION ( #137, #24 ) ;
#30 = CALENDAR_DATE ( 2022, 21, 3 ) ;
#31 = DIRECTION ( 'NONE',  ( 0.000000000000000000, 0.000000000000000000, 1.000000000000000000 ) ) ;
#32 = ORIENTED_EDGE ( 'NONE', *, *, #6, .F. ) ;
#33 = CARTESIAN_POINT ( 'NONE',  ( 0.000000000000000000, 0.000000000000000000, 1.000000000000000000 ) ) ;
#34 = APPROVAL_PERSON_ORGANIZATION ( #161, #143, #16 ) ;
#35 = CARTESIAN_POINT ( 'NONE',  ( -25.39999999999999858, 0.000000000000000000, 1.000000000000000000 ) ) ;
#36 = CC_DESIGN_PERSON_AND_ORGANIZATION_ASSIGNMENT ( #44, #72, ( #101 ) ) ;
#37 = ORIENTED_EDGE ( 'NONE', *, *, #175, .T. ) ;
#38 = ADVANCED_FACE ( 'NONE', ( #93 ), #171, .F. ) ;
#39 = LOCAL_TIME ( 16, 29, 40.00000000000000000, #13 ) ;
#40 = CC_DESIGN_PERSON_AND_ORGANIZATION_ASSIGNMENT ( #69, #120, ( #100 ) ) ;
#41 = COORDINATED_UNIVERSAL_TIME_OFFSET ( 5, 0, .BEHIND. ) ;
#42 = APPROVAL_STATUS ( 'not_yet_approved' ) ;
#43 = CIRCLE ( 'NONE', #166, 25.39999999999999858 ) ;
#44 = PERSON_AND_ORGANIZATION ( #137, #24 ) ;
#45 = EDGE_CURVE ( 'NONE', #127, #61, #91, .T. ) ;
#46 = DIRECTION ( 'NONE',  ( 1.000000000000000000, 0.000000000000000000, 0.000000000000000000 ) ) ;
#47 = ORIENTED_EDGE ( 'NONE', *, *, #162, .T. ) ;
#48 = CARTESIAN_POINT ( 'NONE',  ( 0.000000000000000000, 0.000000000000000000, 1.000000000000000000 ) ) ;
#49 = PLANE ( 'NONE',  #57 ) ;
#50 = APPLICATION_CONTEXT ( 'configuration controlled 3d designs of mechanical parts and assemblies' ) ;
#51 = PRODUCT_DEFINITION_FORMATION_WITH_SPECIFIED_SOURCE ( 'ANY', '', #101, .NOT_KNOWN. ) ;
#52 = DESIGN_CONTEXT ( 'detailed design', #50, 'design' ) ;
#53 = DIRECTION ( 'NONE',  ( -0.000000000000000000, -0.000000000000000000, -1.000000000000000000 ) ) ;
#54 = COORDINATED_UNIVERSAL_TIME_OFFSET ( 5, 0, .BEHIND. ) ;
#55 = PERSON_AND_ORGANIZATION_ROLE ( 'design_supplier' ) ;
#56 = APPROVAL_STATUS ( 'not_yet_approved' ) ;
#57 = AXIS2_PLACEMENT_3D ( 'NONE', #33, #31, #74 ) ;
#58 = APPROVAL ( #56, 'UNSPECIFIED' ) ;
#59 = DIRECTION ( 'NONE',  ( 1.000000000000000000, 0.000000000000000000, 0.000000000000000000 ) ) ;
#60 = LOCAL_TIME ( 16, 29, 40.00000000000000000, #41 ) ;
#61 = VERTEX_POINT ( 'NONE', #35 ) ;
#62 = ORIENTED_EDGE ( 'NONE', *, *, #162, .F. ) ;
#63 = EDGE_LOOP ( 'NONE', ( #19, #37, #47, #21 ) ) ;
#64 = VECTOR ( 'NONE', #157, 1000.000000000000000 ) ;
#65 = CC_DESIGN_APPROVAL ( #143, ( #51 ) ) ;
#66 = COORDINATED_UNIVERSAL_TIME_OFFSET ( 5, 0, .BEHIND. ) ;
#67 = APPROVAL ( #42, 'UNSPECIFIED' ) ;
#68 = LINE ( 'NONE', #11, #14 ) ;
#69 = PERSON_AND_ORGANIZATION ( #137, #24 ) ;
#70 = DIRECTION ( 'NONE',  ( -0.000000000000000000, -0.000000000000000000, -1.000000000000000000 ) ) ;
#71 = ADVANCED_FACE ( 'NONE', ( #129 ), #49, .T. ) ;
#72 = PERSON_AND_ORGANIZATION_ROLE ( 'design_owner' ) ;
#73 = CIRCLE ( 'NONE', #168, 25.39999999999999858 ) ;
#74 = DIRECTION ( 'NONE',  ( 1.000000000000000000, 0.000000000000000000, -0.000000000000000000 ) ) ;
#75 = LOCAL_TIME ( 16, 29, 40.00000000000000000, #54 ) ;
#76 = EDGE_LOOP ( 'NONE', ( #128, #152, #114, #170 ) ) ;
#77 = DIRECTION ( 'NONE',  ( 0.000000000000000000, 0.000000000000000000, 1.000000000000000000 ) ) ;
#78 = DIRECTION ( 'NONE',  ( 0.000000000000000000, 0.000000000000000000, 1.000000000000000000 ) ) ;
#79 = EDGE_CURVE ( 'NONE', #61, #127, #73, .T. ) ;
#80 = UNCERTAINTY_MEASURE_WITH_UNIT (LENGTH_MEASURE( 1.000000000000000082E-05 ), #148, 'distance_accuracy_value', 'NONE');
#81 = CALENDAR_DATE ( 2022, 21, 3 ) ;
#82 = CLOSED_SHELL ( 'NONE', ( #130, #107, #71, #38 ) ) ;
#83 = CARTESIAN_POINT ( 'NONE',  ( 25.39999999999999858, 3.110602869834276865E-15, 0.000000000000000000 ) ) ;
#84 = PERSON_AND_ORGANIZATION ( #137, #24 ) ;
#85 = CARTESIAN_POINT ( 'NONE',  ( 25.39999999999999858, 3.110602869834276865E-15, 1.000000000000000000 ) ) ;
#86 = DIRECTION ( 'NONE',  ( 1.000000000000000000, 0.000000000000000000, 0.000000000000000000 ) ) ;
#87 = SECURITY_CLASSIFICATION_LEVEL ( 'unclassified' ) ;
#88 = LOCAL_TIME ( 16, 29, 40.00000000000000000, #66 ) ;
#89 = APPLICATION_PROTOCOL_DEFINITION ( 'international standard', 'config_control_design', 1994, #50 ) ;
#90 = CC_DESIGN_DATE_AND_TIME_ASSIGNMENT ( #158, #136, ( #113 ) ) ;
#91 = CIRCLE ( 'NONE', #142, 25.39999999999999858 ) ;
#92 = DIRECTION ( 'NONE',  ( 0.000000000000000000, 0.000000000000000000, 1.000000000000000000 ) ) ;
#93 = FACE_OUTER_BOUND ( 'NONE', #8, .T. ) ;
#94 = PRODUCT_RELATED_PRODUCT_CATEGORY ( 'detail', '', ( #101 ) ) ;
#95 =( GEOMETRIC_REPRESENTATION_CONTEXT ( 3 ) GLOBAL_UNCERTAINTY_ASSIGNED_CONTEXT ( ( #80 ) ) GLOBAL_UNIT_ASSIGNED_CONTEXT ( ( #148, #155, #119 ) ) REPRESENTATION_CONTEXT ( 'NONE', 'WORKASPACE' ) );
#96 = APPROVAL_DATE_TIME ( #97, #143 ) ;
#97 = DATE_AND_TIME ( #81, #60 ) ;
#98 = LOCAL_TIME ( 16, 29, 40.00000000000000000, #149 ) ;
#99 = APPROVAL_STATUS ( 'not_yet_approved' ) ;
#100 = PRODUCT_DEFINITION ( 'UNKNOWN', '', #51, #52 ) ;
#101 = PRODUCT ( 'Web Model 20017_20023', 'Web Model 20017_20023', '', ( #146 ) ) ;
#102 = DIRECTION ( 'NONE',  ( 1.000000000000000000, 0.000000000000000000, 0.000000000000000000 ) ) ;
#103 = AXIS2_PLACEMENT_3D ( 'NONE', #122, #165, #173 ) ;
#104 = CC_DESIGN_PERSON_AND_ORGANIZATION_ASSIGNMENT ( #25, #147, ( #51 ) ) ;
#105 = CC_DESIGN_SECURITY_CLASSIFICATION ( #113, ( #51 ) ) ;
#106 = PERSON_AND_ORGANIZATION ( #137, #24 ) ;
#107 = ADVANCED_FACE ( 'NONE', ( #112 ), #169, .T. ) ;
#108 = DATE_AND_TIME ( #134, #75 ) ;
#109 = PERSON_AND_ORGANIZATION ( #137, #24 ) ;
#110 = APPROVAL_ROLE ( '' ) ;
#111 = APPLICATION_CONTEXT ( 'configuration controlled 3d designs of mechanical parts and assemblies' ) ;
#112 = FACE_OUTER_BOUND ( 'NONE', #76, .T. ) ;
#113 = SECURITY_CLASSIFICATION ( '', '', #87 ) ;
#114 = ORIENTED_EDGE ( 'NONE', *, *, #118, .T. ) ;
#115 = CARTESIAN_POINT ( 'NONE',  ( 0.000000000000000000, 0.000000000000000000, 0.000000000000000000 ) ) ;
#116 = CC_DESIGN_PERSON_AND_ORGANIZATION_ASSIGNMENT ( #29, #55, ( #51 ) ) ;
#117 = SHAPE_DEFINITION_REPRESENTATION ( #124, #154 ) ;
#118 = EDGE_CURVE ( 'NONE', #61, #139, #121, .T. ) ;
#119 =( NAMED_UNIT ( * ) SI_UNIT ( $, .STERADIAN. ) SOLID_ANGLE_UNIT ( ) );
#120 = PERSON_AND_ORGANIZATION_ROLE ( 'creator' ) ;
#121 = LINE ( 'NONE', #135, #64 ) ;
#122 = CARTESIAN_POINT ( 'NONE',  ( 0.000000000000000000, 0.000000000000000000, 0.000000000000000000 ) ) ;
#123 = DATE_TIME_ROLE ( 'creation_date' ) ;
#124 = PRODUCT_DEFINITION_SHAPE ( 'NONE', 'NONE',  #100 ) ;
#125 = CARTESIAN_POINT ( 'NONE',  ( 0.000000000000000000, 0.000000000000000000, 1.000000000000000000 ) ) ;
#126 = VERTEX_POINT ( 'NONE', #83 ) ;
#127 = VERTEX_POINT ( 'NONE', #85 ) ;
#128 = ORIENTED_EDGE ( 'NONE', *, *, #175, .F. ) ;
#129 = FACE_OUTER_BOUND ( 'NONE', #172, .T. ) ;
#130 = ADVANCED_FACE ( 'NONE', ( #145 ), #141, .T. ) ;
#131 = DATE_AND_TIME ( #133, #88 ) ;
#132 = DIRECTION ( 'NONE',  ( -0.000000000000000000, -0.000000000000000000, -1.000000000000000000 ) ) ;
#133 = CALENDAR_DATE ( 2022, 21, 3 ) ;
#134 = CALENDAR_DATE ( 2022, 21, 3 ) ;
#135 = CARTESIAN_POINT ( 'NONE',  ( -25.39999999999999858, 0.000000000000000000, 1.000000000000000000 ) ) ;
#136 = DATE_TIME_ROLE ( 'classification_date' ) ;
#137 = PERSON ( 'UNSPECIFIED', 'UNSPECIFIED', 'UNSPECIFIED', ('UNSPECIFIED'), ('UNSPECIFIED'), ('UNSPECIFIED') ) ;
#138 = AXIS2_PLACEMENT_3D ( 'NONE', #115, #77, #46 ) ;
#139 = VERTEX_POINT ( 'NONE', #160 ) ;
#140 = ORIENTED_EDGE ( 'NONE', *, *, #79, .T. ) ;
#141 = CYLINDRICAL_SURFACE ( 'NONE', #153, 25.39999999999999858 ) ;
#142 = AXIS2_PLACEMENT_3D ( 'NONE', #48, #78, #102 ) ;
#143 = APPROVAL ( #99, 'UNSPECIFIED' ) ;
#144 = APPLICATION_PROTOCOL_DEFINITION ( 'international standard', 'config_control_design', 1994, #111 ) ;
#145 = FACE_OUTER_BOUND ( 'NONE', #63, .T. ) ;
#146 = MECHANICAL_CONTEXT ( 'NONE', #111, 'mechanical' ) ;
#147 = PERSON_AND_ORGANIZATION_ROLE ( 'creator' ) ;
#148 =( LENGTH_UNIT ( ) NAMED_UNIT ( * ) SI_UNIT ( .MILLI., .METRE. ) );
#149 = COORDINATED_UNIVERSAL_TIME_OFFSET ( 5, 0, .BEHIND. ) ;
#150 = CIRCLE ( 'NONE', #138, 25.39999999999999858 ) ;
#151 = DIRECTION ( 'NONE',  ( 1.000000000000000000, 0.000000000000000000, -0.000000000000000000 ) ) ;
#152 = ORIENTED_EDGE ( 'NONE', *, *, #79, .F. ) ;
#153 = AXIS2_PLACEMENT_3D ( 'NONE', #163, #132, #15 ) ;
#154 = ADVANCED_BREP_SHAPE_REPRESENTATION ( 'Web Model 20017_20023', ( #23, #103 ), #95 ) ;
#155 =( NAMED_UNIT ( * ) PLANE_ANGLE_UNIT ( ) SI_UNIT ( $, .RADIAN. ) );
#156 = APPROVAL_PERSON_ORGANIZATION ( #84, #58, #110 ) ;
#157 = DIRECTION ( 'NONE',  ( -0.000000000000000000, -0.000000000000000000, -1.000000000000000000 ) ) ;
#158 = DATE_AND_TIME ( #30, #98 ) ;
#159 = CC_DESIGN_APPROVAL ( #67, ( #100 ) ) ;
#160 = CARTESIAN_POINT ( 'NONE',  ( -25.39999999999999858, 0.000000000000000000, 0.000000000000000000 ) ) ;
#161 = PERSON_AND_ORGANIZATION ( #137, #24 ) ;
#162 = EDGE_CURVE ( 'NONE', #126, #139, #43, .T. ) ;
#163 = CARTESIAN_POINT ( 'NONE',  ( 0.000000000000000000, 0.000000000000000000, 1.000000000000000000 ) ) ;
#164 = CALENDAR_DATE ( 2022, 21, 3 ) ;
#165 = DIRECTION ( 'NONE',  ( 0.000000000000000000, 0.000000000000000000, 1.000000000000000000 ) ) ;
#166 = AXIS2_PLACEMENT_3D ( 'NONE', #17, #28, #86 ) ;
#167 = CC_DESIGN_PERSON_AND_ORGANIZATION_ASSIGNMENT ( #109, #2, ( #113 ) ) ;
#168 = AXIS2_PLACEMENT_3D ( 'NONE', #125, #4, #59 ) ;
#169 = CYLINDRICAL_SURFACE ( 'NONE', #9, 25.39999999999999858 ) ;
#170 = ORIENTED_EDGE ( 'NONE', *, *, #6, .T. ) ;
#171 = PLANE ( 'NONE',  #18 ) ;
#172 = EDGE_LOOP ( 'NONE', ( #140, #7 ) ) ;
#173 = DIRECTION ( 'NONE',  ( 1.000000000000000000, 0.000000000000000000, 0.000000000000000000 ) ) ;
#174 = APPROVAL_DATE_TIME ( #27, #67 ) ;
#175 = EDGE_CURVE ( 'NONE', #127, #126, #68, .T. ) ;
ENDSEC;
END-ISO-10303-21;
