ISO-10303-21;
HEADER;
FILE_DESCRIPTION (( 'STEP AP203' ),
    '1' );
FILE_NAME ('43365C_36577.step',
    '2017-07-20T12:39:14',
    ( '' ),
    ( '' ),
    'SwSTEP 2.0',
    'SolidWorks 2016',
    '' );
FILE_SCHEMA (( 'CONFIG_CONTROL_DESIGN' ));
ENDSEC;

DATA;
#1 = AXIS2_PLACEMENT_3D ( 'NONE', #95, #81, #172 ) ;
#2 = PERSON_AND_ORGANIZATION ( #12, #66 ) ;
#3 = VECTOR ( 'NONE', #145, 1000.000000000000000 ) ;
#4 = CALENDAR_DATE ( 2017, 20, 7 ) ;
#5 = CC_DESIGN_APPROVAL ( #171, ( #147 ) ) ;
#6 = FACE_OUTER_BOUND ( 'NONE', #150, .T. ) ;
#7 = ADVANCED_FACE ( 'NONE', ( #6 ), #39, .T. ) ;
#8 = DATE_AND_TIME ( #43, #85 ) ;
#9 = CARTESIAN_POINT ( 'NONE',  ( 0.0000000000000000000, 0.0000000000000000000, 0.5000000000000000000 ) ) ;
#10 = VERTEX_POINT ( 'NONE', #79 ) ;
#11 = PERSON_AND_ORGANIZATION_ROLE ( 'design_owner' ) ;
#12 = PERSON ( 'UNSPECIFIED', 'UNSPECIFIED', 'UNSPECIFIED', ('UNSPECIFIED'), ('UNSPECIFIED'), ('UNSPECIFIED') ) ;
#13 = APPROVAL_DATE_TIME ( #48, #59 ) ;
#14 = CC_DESIGN_SECURITY_CLASSIFICATION ( #147, ( #102 ) ) ;
#15 = ORIENTED_EDGE ( 'NONE', *, *, #31, .T. ) ;
#16 = PERSON_AND_ORGANIZATION_ROLE ( 'creator' ) ;
#17 = APPROVAL_PERSON_ORGANIZATION ( #53, #59, #110 ) ;
#18 = SECURITY_CLASSIFICATION_LEVEL ( 'unclassified' ) ;
#19 = ORIENTED_EDGE ( 'NONE', *, *, #68, .F. ) ;
#20 = DIRECTION ( 'NONE',  ( 0.0000000000000000000, 0.0000000000000000000, 1.000000000000000000 ) ) ;
#21 = DIRECTION ( 'NONE',  ( -1.000000000000000000, 0.0000000000000000000, 0.0000000000000000000 ) ) ;
#22 = UNCERTAINTY_MEASURE_WITH_UNIT (LENGTH_MEASURE( 1.000000000000000100E-005 ), #25, 'distance_accuracy_value', 'NONE');
#23 = DIRECTION ( 'NONE',  ( 1.000000000000000000, 0.0000000000000000000, 0.0000000000000000000 ) ) ;
#24 = PRODUCT_RELATED_PRODUCT_CATEGORY ( 'detail', '', ( #151 ) ) ;
#25 =( LENGTH_UNIT ( ) NAMED_UNIT ( * ) SI_UNIT ( .MILLI., .METRE. ) );
#26 = APPLICATION_PROTOCOL_DEFINITION ( 'international standard', 'config_control_design', 1994, #108 ) ;
#27 = ORIENTED_EDGE ( 'NONE', *, *, #76, .F. ) ;
#28 = CALENDAR_DATE ( 2017, 20, 7 ) ;
#29 = VERTEX_POINT ( 'NONE', #166 ) ;
#30 = FACE_OUTER_BOUND ( 'NONE', #42, .T. ) ;
#31 = EDGE_CURVE ( 'NONE', #90, #29, #113, .T. ) ;
#32 = DATE_AND_TIME ( #69, #106 ) ;
#33 = FACE_OUTER_BOUND ( 'NONE', #87, .T. ) ;
#34 = CARTESIAN_POINT ( 'NONE',  ( -2.500000000000000000, 0.0000000000000000000, 0.5000000000000000000 ) ) ;
#35 = PERSON_AND_ORGANIZATION ( #12, #66 ) ;
#36 = AXIS2_PLACEMENT_3D ( 'NONE', #160, #82, #173 ) ;
#37 = DIRECTION ( 'NONE',  ( 0.0000000000000000000, 0.0000000000000000000, 1.000000000000000000 ) ) ;
#38 =( NAMED_UNIT ( * ) SI_UNIT ( $, .STERADIAN. ) SOLID_ANGLE_UNIT ( ) );
#39 = CYLINDRICAL_SURFACE ( 'NONE', #104, 2.500000000000000000 ) ;
#40 = EDGE_CURVE ( 'NONE', #154, #90, #148, .T. ) ;
#41 = LOCAL_TIME ( 8, 39, 14.00000000000000000, #77 ) ;
#42 = EDGE_LOOP ( 'NONE', ( #159, #123 ) ) ;
#43 = CALENDAR_DATE ( 2017, 20, 7 ) ;
#44 = PERSON_AND_ORGANIZATION_ROLE ( 'creator' ) ;
#45 = CC_DESIGN_PERSON_AND_ORGANIZATION_ASSIGNMENT ( #92, #11, ( #151 ) ) ;
#46 = ORIENTED_EDGE ( 'NONE', *, *, #56, .T. ) ;
#47 = EDGE_CURVE ( 'NONE', #10, #29, #74, .T. ) ;
#48 = DATE_AND_TIME ( #88, #125 ) ;
#49 = DIRECTION ( 'NONE',  ( 0.0000000000000000000, 0.0000000000000000000, 1.000000000000000000 ) ) ;
#50 = PLANE ( 'NONE',  #1 ) ;
#51 = ORIENTED_EDGE ( 'NONE', *, *, #68, .T. ) ;
#52 = APPLICATION_PROTOCOL_DEFINITION ( 'international standard', 'config_control_design', 1994, #65 ) ;
#53 = PERSON_AND_ORGANIZATION ( #12, #66 ) ;
#54 = PRODUCT_DEFINITION ( 'UNKNOWN', '', #102, #124 ) ;
#55 = MANIFOLD_SOLID_BREP ( 'Boss-Extrude1', #135 ) ;
#56 = EDGE_CURVE ( 'NONE', #154, #10, #98, .T. ) ;
#57 = ADVANCED_FACE ( 'NONE', ( #174 ), #103, .T. ) ;
#58 = DIRECTION ( 'NONE',  ( -0.0000000000000000000, -0.0000000000000000000, -1.000000000000000000 ) ) ;
#59 = APPROVAL ( #84, 'UNSPECIFIED' ) ;
#60 = CARTESIAN_POINT ( 'NONE',  ( -2.500000000000000000, 0.0000000000000000000, 0.5000000000000000000 ) ) ;
#61 = LOCAL_TIME ( 8, 39, 14.00000000000000000, #101 ) ;
#62 = ORIENTED_EDGE ( 'NONE', *, *, #47, .T. ) ;
#63 = CARTESIAN_POINT ( 'NONE',  ( 2.500000000000000000, 3.061616997868383100E-016, 0.5000000000000000000 ) ) ;
#64 = DIRECTION ( 'NONE',  ( -1.000000000000000000, 0.0000000000000000000, 0.0000000000000000000 ) ) ;
#65 = APPLICATION_CONTEXT ( 'configuration controlled 3d designs of mechanical parts and assemblies' ) ;
#66 = ORGANIZATION ( 'UNSPECIFIED', 'UNSPECIFIED', '' ) ;
#67 = ORIENTED_EDGE ( 'NONE', *, *, #47, .F. ) ;
#68 = EDGE_CURVE ( 'NONE', #29, #10, #109, .T. ) ;
#69 = CALENDAR_DATE ( 2017, 20, 7 ) ;
#70 = VECTOR ( 'NONE', #58, 1000.000000000000000 ) ;
#71 = PERSON_AND_ORGANIZATION ( #12, #66 ) ;
#72 = APPROVAL_STATUS ( 'not_yet_approved' ) ;
#73 = CC_DESIGN_APPROVAL ( #59, ( #54 ) ) ;
#74 = CIRCLE ( 'NONE', #89, 2.500000000000000000 ) ;
#75 = DIRECTION ( 'NONE',  ( -0.0000000000000000000, -0.0000000000000000000, -1.000000000000000000 ) ) ;
#76 = EDGE_CURVE ( 'NONE', #90, #154, #140, .T. ) ;
#77 = COORDINATED_UNIVERSAL_TIME_OFFSET ( 5, 0, .BEHIND. ) ;
#78 = CARTESIAN_POINT ( 'NONE',  ( 0.0000000000000000000, 0.0000000000000000000, -0.5000000000000000000 ) ) ;
#79 = CARTESIAN_POINT ( 'NONE',  ( -2.500000000000000000, 0.0000000000000000000, -0.5000000000000000000 ) ) ;
#80 = DIRECTION ( 'NONE',  ( 1.000000000000000000, 0.0000000000000000000, 0.0000000000000000000 ) ) ;
#81 = DIRECTION ( 'NONE',  ( 0.0000000000000000000, 0.0000000000000000000, 1.000000000000000000 ) ) ;
#82 = DIRECTION ( 'NONE',  ( 0.0000000000000000000, 0.0000000000000000000, 1.000000000000000000 ) ) ;
#83 = EDGE_LOOP ( 'NONE', ( #128, #127, #46, #62 ) ) ;
#84 = APPROVAL_STATUS ( 'not_yet_approved' ) ;
#85 = LOCAL_TIME ( 8, 39, 14.00000000000000000, #119 ) ;
#86 = CC_DESIGN_PERSON_AND_ORGANIZATION_ASSIGNMENT ( #152, #16, ( #54 ) ) ;
#87 = EDGE_LOOP ( 'NONE', ( #67, #19 ) ) ;
#88 = CALENDAR_DATE ( 2017, 20, 7 ) ;
#89 = AXIS2_PLACEMENT_3D ( 'NONE', #78, #168, #93 ) ;
#90 = VERTEX_POINT ( 'NONE', #133 ) ;
#91 = CARTESIAN_POINT ( 'NONE',  ( 0.0000000000000000000, 0.0000000000000000000, 0.5000000000000000000 ) ) ;
#92 = PERSON_AND_ORGANIZATION ( #12, #66 ) ;
#93 = DIRECTION ( 'NONE',  ( 1.000000000000000000, 0.0000000000000000000, 0.0000000000000000000 ) ) ;
#94 = CC_DESIGN_DATE_AND_TIME_ASSIGNMENT ( #8, #100, ( #54 ) ) ;
#95 = CARTESIAN_POINT ( 'NONE',  ( 0.0000000000000000000, 0.0000000000000000000, 0.5000000000000000000 ) ) ;
#96 = MECHANICAL_CONTEXT ( 'NONE', #65, 'mechanical' ) ;
#97 = AXIS2_PLACEMENT_3D ( 'NONE', #132, #49, #143 ) ;
#98 = LINE ( 'NONE', #34, #70 ) ;
#99 = PERSON_AND_ORGANIZATION_ROLE ( 'design_supplier' ) ;
#100 = DATE_TIME_ROLE ( 'creation_date' ) ;
#101 = COORDINATED_UNIVERSAL_TIME_OFFSET ( 5, 0, .BEHIND. ) ;
#102 = PRODUCT_DEFINITION_FORMATION_WITH_SPECIFIED_SOURCE ( 'ANY', '', #151, .NOT_KNOWN. ) ;
#103 = CYLINDRICAL_SURFACE ( 'NONE', #131, 2.500000000000000000 ) ;
#104 = AXIS2_PLACEMENT_3D ( 'NONE', #91, #75, #64 ) ;
#105 = CARTESIAN_POINT ( 'NONE',  ( 0.0000000000000000000, 0.0000000000000000000, 0.5000000000000000000 ) ) ;
#106 = LOCAL_TIME ( 8, 39, 14.00000000000000000, #141 ) ;
#107 = DIRECTION ( 'NONE',  ( 0.0000000000000000000, 0.0000000000000000000, 1.000000000000000000 ) ) ;
#108 = APPLICATION_CONTEXT ( 'configuration controlled 3d designs of mechanical parts and assemblies' ) ;
#109 = CIRCLE ( 'NONE', #126, 2.500000000000000000 ) ;
#110 = APPROVAL_ROLE ( '' ) ;
#111 = APPROVAL_DATE_TIME ( #144, #112 ) ;
#112 = APPROVAL ( #72, 'UNSPECIFIED' ) ;
#113 = LINE ( 'NONE', #63, #3 ) ;
#114 = APPROVAL_ROLE ( '' ) ;
#115 = AXIS2_PLACEMENT_3D ( 'NONE', #9, #107, #23 ) ;
#116 = APPROVAL_PERSON_ORGANIZATION ( #149, #112, #114 ) ;
#117 = ORIENTED_EDGE ( 'NONE', *, *, #56, .F. ) ;
#118 = ADVANCED_FACE ( 'NONE', ( #33 ), #121, .F. ) ;
#119 = COORDINATED_UNIVERSAL_TIME_OFFSET ( 5, 0, .BEHIND. ) ;
#120 = CC_DESIGN_APPROVAL ( #112, ( #102 ) ) ;
#121 = PLANE ( 'NONE',  #156 ) ;
#122 =( NAMED_UNIT ( * ) PLANE_ANGLE_UNIT ( ) SI_UNIT ( $, .RADIAN. ) );
#123 = ORIENTED_EDGE ( 'NONE', *, *, #76, .T. ) ;
#124 = DESIGN_CONTEXT ( 'detailed design', #108, 'design' ) ;
#125 = LOCAL_TIME ( 8, 39, 14.00000000000000000, #155 ) ;
#126 = AXIS2_PLACEMENT_3D ( 'NONE', #157, #20, #80 ) ;
#127 = ORIENTED_EDGE ( 'NONE', *, *, #40, .F. ) ;
#128 = ORIENTED_EDGE ( 'NONE', *, *, #31, .F. ) ;
#129 = APPROVAL_ROLE ( '' ) ;
#130 = CC_DESIGN_PERSON_AND_ORGANIZATION_ASSIGNMENT ( #71, #44, ( #102 ) ) ;
#131 = AXIS2_PLACEMENT_3D ( 'NONE', #105, #170, #21 ) ;
#132 = CARTESIAN_POINT ( 'NONE',  ( 0.0000000000000000000, 0.0000000000000000000, 0.5000000000000000000 ) ) ;
#133 = CARTESIAN_POINT ( 'NONE',  ( 2.500000000000000000, 3.061616997868383100E-016, 0.5000000000000000000 ) ) ;
#134 = APPROVAL_DATE_TIME ( #164, #171 ) ;
#135 = CLOSED_SHELL ( 'NONE', ( #7, #57, #167, #118 ) ) ;
#136 = DIRECTION ( 'NONE',  ( 1.000000000000000000, 0.0000000000000000000, -0.0000000000000000000 ) ) ;
#137 = SHAPE_DEFINITION_REPRESENTATION ( #162, #165 ) ;
#138 = APPROVAL_PERSON_ORGANIZATION ( #169, #171, #129 ) ;
#139 = CC_DESIGN_PERSON_AND_ORGANIZATION_ASSIGNMENT ( #35, #99, ( #102 ) ) ;
#140 = CIRCLE ( 'NONE', #115, 2.500000000000000000 ) ;
#141 = COORDINATED_UNIVERSAL_TIME_OFFSET ( 5, 0, .BEHIND. ) ;
#142 = DATE_TIME_ROLE ( 'classification_date' ) ;
#143 = DIRECTION ( 'NONE',  ( 1.000000000000000000, 0.0000000000000000000, 0.0000000000000000000 ) ) ;
#144 = DATE_AND_TIME ( #4, #41 ) ;
#145 = DIRECTION ( 'NONE',  ( -0.0000000000000000000, -0.0000000000000000000, -1.000000000000000000 ) ) ;
#146 = CARTESIAN_POINT ( 'NONE',  ( 0.0000000000000000000, 0.0000000000000000000, -0.5000000000000000000 ) ) ;
#147 = SECURITY_CLASSIFICATION ( '', '', #18 ) ;
#148 = CIRCLE ( 'NONE', #97, 2.500000000000000000 ) ;
#149 = PERSON_AND_ORGANIZATION ( #12, #66 ) ;
#150 = EDGE_LOOP ( 'NONE', ( #27, #15, #51, #117 ) ) ;
#151 = PRODUCT ( '43365C_36577', '43365C_36577', '', ( #96 ) ) ;
#152 = PERSON_AND_ORGANIZATION ( #12, #66 ) ;
#153 = CC_DESIGN_PERSON_AND_ORGANIZATION_ASSIGNMENT ( #2, #175, ( #147 ) ) ;
#154 = VERTEX_POINT ( 'NONE', #60 ) ;
#155 = COORDINATED_UNIVERSAL_TIME_OFFSET ( 5, 0, .BEHIND. ) ;
#156 = AXIS2_PLACEMENT_3D ( 'NONE', #146, #37, #136 ) ;
#157 = CARTESIAN_POINT ( 'NONE',  ( 0.0000000000000000000, 0.0000000000000000000, -0.5000000000000000000 ) ) ;
#158 = APPROVAL_STATUS ( 'not_yet_approved' ) ;
#159 = ORIENTED_EDGE ( 'NONE', *, *, #40, .T. ) ;
#160 = CARTESIAN_POINT ( 'NONE',  ( 0.0000000000000000000, 0.0000000000000000000, 0.0000000000000000000 ) ) ;
#161 = CC_DESIGN_DATE_AND_TIME_ASSIGNMENT ( #32, #142, ( #147 ) ) ;
#162 = PRODUCT_DEFINITION_SHAPE ( 'NONE', 'NONE',  #54 ) ;
#163 =( GEOMETRIC_REPRESENTATION_CONTEXT ( 3 ) GLOBAL_UNCERTAINTY_ASSIGNED_CONTEXT ( ( #22 ) ) GLOBAL_UNIT_ASSIGNED_CONTEXT ( ( #25, #122, #38 ) ) REPRESENTATION_CONTEXT ( 'NONE', 'WORKASPACE' ) );
#164 = DATE_AND_TIME ( #28, #61 ) ;
#165 = ADVANCED_BREP_SHAPE_REPRESENTATION ( '43365C_36577', ( #55, #36 ), #163 ) ;
#166 = CARTESIAN_POINT ( 'NONE',  ( 2.500000000000000000, 3.061616997868383100E-016, -0.5000000000000000000 ) ) ;
#167 = ADVANCED_FACE ( 'NONE', ( #30 ), #50, .T. ) ;
#168 = DIRECTION ( 'NONE',  ( 0.0000000000000000000, 0.0000000000000000000, 1.000000000000000000 ) ) ;
#169 = PERSON_AND_ORGANIZATION ( #12, #66 ) ;
#170 = DIRECTION ( 'NONE',  ( -0.0000000000000000000, -0.0000000000000000000, -1.000000000000000000 ) ) ;
#171 = APPROVAL ( #158, 'UNSPECIFIED' ) ;
#172 = DIRECTION ( 'NONE',  ( 1.000000000000000000, 0.0000000000000000000, -0.0000000000000000000 ) ) ;
#173 = DIRECTION ( 'NONE',  ( 1.000000000000000000, 0.0000000000000000000, 0.0000000000000000000 ) ) ;
#174 = FACE_OUTER_BOUND ( 'NONE', #83, .T. ) ;
#175 = PERSON_AND_ORGANIZATION_ROLE ( 'classification_officer' ) ;
ENDSEC;
END-ISO-10303-21;
